Song name
# A B C D E F G H I J K L M N O P Q R S T U V W X Y Z

We As Human - Dead Man tab

Artist: WE AS HUMAN
Album:  WE AS HUMAN
Song:   DEAD MAN

Tabbed by: Rulerof52
Tabbed on: Jan 26 2014

You must message me for permission before copying ANY part of this tab!
I personally tabbed it by ear by slowing down the song. 


INTRO |0:01| 
============
D|----------------------------------------------------------------| X2
A|----------------------------------------------------------------|
F|-7-7-7-7-7-5--8~-------7-7-7-7-7-5--8~--------------------------|
C|----------------------------------------------------------------|
G|-5-5-5-5-5-3--6~-------5-5-5-5-5-3--6~--------------------------|
C|----------------------------------------------------------------|


    //GUITAR 2//  |0:11|   2nd time only
    D|----------------------------------------------------------------|
    A|--/13~----------------------------------------------------------|
    F|----------------------------------------------------------------|
    C|--------1-1--1-1-1--1--1-1-1--------1-1-1--1-1-1--1-1-1---------|
    G|--------1-1--1-1-1--1--1-1-1--------1-1-1--1-1-1--1-1-1---------|
    C|--------1-1--1-1-1--1--1-1-1--------1-1-1--1-1-1--1-1-1---------|
              . .  . . .  .  . . .        . . .  . . .  . . .  (palm mute)

VERSE |0:22|   "This is it, this is where we make a stand"
============
D|----------------------------------------------------------------|
A|----------------------------------------------------------------|
F|----------------------2-------------------------2---------------|
C|-0-0-0--0-0-0--0--0-0-0--0-0-0--0-0-0--0--0-0-0-0---------------|
G|-0-0-0--0-0-0--0--0-0----0-0-0--0-0-0--0--0-0-0-----------------|
C|-0-0-0--0-0-0--0--0-0----0-0-0--0-0-0--0--0-0-0-----------------|

D|----------------------------------------------------------------| X2
A|----------------------------------------------------------------|
F|----------------------2-------------------------2---------------|
C|-0------0-0-0--0--0-0-0--0-0-0--0-0-0--0--0-0-0-0---------------|
G|-0------0-0-0--0--0-0----0-0-0--0-0-0--0--0-0-0-----------------|
C|-0------0-0-0--0--0-0----0-0-0--0-0-0--0--0-0-0-----------------|




D|----------------------------------------------------------------| 
A|----------------------------------------------------------------|
F|----------------------2-----------------------------------------|
C|-0------0-0-0--0--0-0-0--0-0-0--0-0-0--0------------------------|
G|-0------0-0-0--0--0-0----0-0-0--0-0-0--0------------------------|
C|-0------0-0-0--0--0-0----0-0-0--0-0-0--0------------------------|


    //GUITAR 2//  |0:33|  "I'm sick of the man I am within"
    D|-17----------------18~--17--------------------------------------|
    A|----15----------15---------15-----------------------------------|
    F|-------14~--/17---------------14~----12-12-10-9-----------------|
    C|----------------------------------------------------------------|
    G|----------------------------------------------------------------|
    C|----------------------------------------------------------------|

CHORUS |0:43| X2   "Sitting here at my graveside"
============
D|----------------------------------------------------------------| X2
A|----------------------------------------------------------------|
F|-------------5--5--5--5-----------------------------------------|
C|-0--0--0--0--5--5--5--5--5--5--5--5--8--8--7--3-----------------|
G|-0--0--0--0--3--3--3--3--5--5--5--5--8--8--7--3-----------------|
C|-0--0--0--0--------------5--5--5--5--8--8--7--3-----------------|

    //GUITAR 2//  
    D|-17~------------------------------------------------------------|
    A|----------------------------------------------------------------|
    F|----------------------------------------------------------------|
    C|--------9-9-9-9-10-10-10-10-10-10-10-10-10-10-10-10-12-12-12----|
    G|----------------------------------------------------------------|
    C|----------------------------------------------------------------|

    D|----------------------------------------------------------------|
    A|----------------------------------------------------------------|
    F|-12-14-14-14-14-14-14-14-14-14-14-14-14-14-15-15-15-------------|
    C|----------------------------------------------------------------|
    G|----------------------------------------------------------------|
    C|----------------------------------------------------------------|

    D|----------------------------------------------------------------|
    A|----------------------------------------------------------------|
    F|-14~------------------------------------------------------------|
    C|--------15~-----14~-----10~-------------------------------------|
    G|----------------------------------------------------------------|
    C|----------------------------------------------------------------|


INTRO
VERSE
CHORUS


BRIDGE |1:53|   "Dead man out.." 
============
D|----------------------------------------------------------------| X2
A|----------------------------------------------------------------|
F|----------------------------------------------------------------|
C|-0-0-0--0--0-0-0--0--0-0-3--0-0-0--0--0-0-0--0--0-0-3-----------|
G|-0-0-0--0--0-0-0--0--0-0-3--0-0-0--0--0-0-0--0--0-0-3-----------|
C|-0-0-0--0--0-0-0--0--0-0-3--0-0-0--0--0-0-0--0--0-0-3-----------|
   . .       . .       . .    . .       . .       . .  
   
    //GUITAR 2//  |1:53|
    D|-17-17-17-17/18-18-18-18/19-19-19-19/20-20-20-20----------------|
    A|----------------------------------------------------------------|
    F|----------------------------------------------------------------|
    C|----------------------------------------------------------------|
    G|----------------------------------------------------------------|
    C|----------------------------------------------------------------|

SOLO |2:03|
===========
D|----------------------------------------------------------------| 
A|----------------------------------------------------------------|
F|-------------5--5--5--5-----------------------------------------|
C|-0--0--0--0--5--5--5--5--5--5--5--5--8--8--7--3-----------------|
G|-0--0--0--0--3--3--3--3--5--5--5--5--8--8--7--3-----------------|
C|-0--0--0--0--------------5--5--5--5--8--8--7--3-----------------|

    //GUITAR 2//  |2:03|
    D|----------------------------------------------------------------|
    A|-18~-17-15------------------------------------------------------|
    F|-----------17-17b19b17~-----------------------------------------|
    C|----------------------------14b15b14-12-10---12b14b12-10~-------|
    G|----------------------------------------------------------------|
    C|----------------------------------------------------------------|

    D|----------------------------------------------------------------|
    A|---------------------------------------10-----------------------|
    F|-9b10b9-9-7----7~----10-------13----------------13--------------|
    C|------------10----------12-10----12-10----12-10-----------------|
    G|----------------------------------------------------------------|
    C|----------------------------------------------------------------|

    D|----------17-------18-------20--20b22~~~------------------------|
    A|-18-17-15----17-15----17-15-------------------------------------|
    F|----------------------------------------------------------------|
    C|----------------------------------------------------------------|
    G|----------------------------------------------------------------|
    C|----------------------------------------------------------------|


CHORUS
INTRO
Tap to rate this tab
# A B C D E F G H I J K L M N O P Q R S T U V W X Y Z