Song name
# A B C D E F G H I J K L M N O P Q R S T U V W X Y Z

We As Human - Strike Back tab

Artist: WE AS HUMAN
Album:  WE AS HUMAN
Song:   STRIKE BACK

Tabbed by: Rulerof52
Tabbed on: Jan 26 2014

You must message me for permission before copying ANY part of this tab!
I personally tabbed it by ear by slowing down the song. 


INTRO |0:01| 
============
D|----------------------------------------------------------------|
A|----------------------------------------------------------------|
F|----------------------------------------------------------------|
C|-3-0-0--0-3-0-0---6-0-0--0-5-0-1-0------------------------------|
G|-3-0-0--0-3-0-0---6-0-0--0-5-0-1-0------------------------------|
C|-3-0-0--0-3-0-0---6-0-0--0-5-0-1-0------------------------------|

D|----------------------------------------------------------------|
A|----------------------------------------------------------------|
F|----------------------------------------------------------------|
C|-3-0-0--0-3-0-0---6-0-0--0-3-6-1--------------------------------|
G|-3-0-0--0-3-0-0---6-0-0--0-3-6-1--------------------------------|
C|-3-0-0--0-3-0-0---6-0-0--0-3-6-1--------------------------------|

VERSE |0:10| X2   "You wanna push me like I don't mind"
============
D|----------------------------------------------------------------|
A|----------------------------------------------------------------|
F|----------------------------------------------------------------|
C|----------------------------------------------------------------|
G|----------------------------------------------------------------|
C|-3-0-0--0-3-0-0---6-0-0--0-5-0-1-0------------------------------|

D|----------------------------------------------------------------|
A|----------------------------------------------------------------|
F|----------------------------------------------------------------|
C|----------------------------------------------------------------|
G|----------------------------------------------------------------|
C|-3-0-0--0-3-0-0---6-0-0--0-3-6-1--------------------------------|


PRECHORUS |0:28|   "You think I'm gonna back down"
============
D|----------------------------------------------------------------|
A|----------------------------------------------------------------|
F|----------------------------------------------------------------|
C|-8-8-8-8-8-8-8-8-8-8-8-8-8-8-7-7-5-5-5-5-5-5-5-5-1-1-1-1--------|
G|-8-8-8-8-8-8-8-8-8-8-8-8-8-8-7-7-5-5-5-5-5-5-5-5-1-1-1-1--------|
C|-8-8-8-8-8-8-8-8-8-8-8-8-8-8-7-7-5-5-5-5-5-5-5-5-1-1-1-1--------|

    //GUITAR 2//  |0:28|
    D|----------------------------------------------------------------|
    A|-----a-----------------------------------------------------------|
    F|-/7~--/10~--/12~--/14~--/7~--/10~--/12~-------------------------|
    C|----------------------------------------------------------------|
    G|----------------------------------------------------------------|
    C|----------------------------------------------------------------|


CHORUS |0:36| X2   "The bigger they are, the harder they fall"
============
D|----------------------------------------------------------------|
A|----------------------------------------------------------------|
F|----------------------------------------------------------------|
C|-0--0--0--0--5-5-5--8-8-8-8--0--0--0--0--5-5-5--6-6-6-----------|
G|-0--0--0--0--5-5-5--8-8-8-8--0--0--0--0--5-5-5--6-6-6-----------|
C|-0--0--0--0--5-5-5--8-8-8-8--0--0--0--0--5-5-5--6-6-6-----------|

    //GUITAR 2//  |0:36|  X2
    D|----------------------------------------------------------------|
    A|-10~~~------13~~-----------------7~~~--------------8~--9~-------|
    F|----------------------------------------------------------------|
    C|------------------10----------------------------------------6---|
    G|-------8h10----------10-12p10----------10p9-------------------6-|
    C|--------------------------------------------12-14---------------|


POST-CHORUS |0:54|   "When my back's against the wall"
============
D|----------------------------------------------------------------|
A|----------------------------------------------------------------|
F|----------------------------------------------------------------|
C|----------------------------------------------------------------|
G|----------------------------------------------------------------|
C|-6-5-3-0-6-5-3-0------------------------------------------------|

INTRO
VERSE
CHORUS
POST-CHORUS

BRIDGE |1:57| 
============
D|----------------------------------------------------------------|
A|----------------------------------------------------------------|
F|----------------------------------------------------------------|
C|-0--0--0--0--5-5-5--8-8-8-8--0--0--0--0--5-5-5--6-6-------------|
G|-0--0--0--0--5-5-5--8-8-8-8--0--0--0--0--5-5-5--6-6-------------|
C|-0--0--0--0--5-5-5--8-8-8-8--0--0--0--0--5-5-5--6-6-------------|

    //GUITAR 2//
    SOLO |1:57| 
    ============
    D|-8-----8-----8--------------------------------------------------|
    A|-11b13-11b13-11b13----------------------------------------------|
    F|---------------------10----------12--10-------10----------12b14-|
    C|------------------------12-10-----------12-10----12-10----------|
    G|------------------------------12-----------------------12-------|
    C|----------------------------------------------------------------|

    D|-----------------------------------10---------------------------|
    A|-----------------13*------10-11-13----13b15~-16b18-18b20-20b22~-|
    F|--------------------10-12---------------------------------------|
    C|---------8-10-11------------------------------------------------|
    G|-8-10-12--------------------------------------------------------|
    C|----------------------------------------------------------------|


|2:06|   The bigger they are, the harder they fall
D|----------------------------------------------------------------|
A|----------------------------------------------------------------|
F|----------------------------------------------------------------|
C|----------------------------------------------------------------|
G|----------------------------------------------------------------|
C|-0-0-0-0-0-0-0-0-0-0-0-0-0-1-1-1--------------------------------|

D|----------------------------------------------------------------|
A|----------------------------------------------------------------|
F|----------------------------------------------------------------|
C|----------------------------------------------------------------|
G|----------------------------------------------------------------|
C|-0-0-0-0-0-0-0-0-0-0/6-6-6\1-1-1--------------------------------|

|2:14|   You’ve got my back against the wall
D|----------------------------------------------------------------|
A|----------------------------------------------------------------|
F|----------------------------------------------------------------|
C|-0--0--0-0---0--0--0-0--1---0--0--0-0--xx-0--0--0-1-------------|
G|-0--0--0-0---0--0--0-0--1---0--0--0-0--xx-0--0--0-1-------------|
C|-0--0--0-0---0--0--0-0--1---0--0--0-0--xx-0--0--0-1-------------|


CHORUS
INTRO


OUTRO |3:11| 
============
D|----------------------------------------------------------------|
A|----------------------------------------------------------------|
F|----------------------------------------------------------------|
C|-3-0------------------------------------------------------------|
G|-3-0------------------------------------------------------------|
C|-3-0------------------------------------------------------------|
Tap to rate this tab
# A B C D E F G H I J K L M N O P Q R S T U V W X Y Z