Song name
# A B C D E F G H I J K L M N O P Q R S T U V W X Y Z

We As Human - Zombie tab

Artist: WE AS HUMAN
Album:  WE AS HUMAN
Song:   ZOMBIE (ft. John Cooper)

Tabbed by: Rulerof52
Tabbed on: Jan 26 2014

You must message me for permission before copying ANY part of this tab!
I personally tabbed it by ear by slowing down the song. 

Solo not included.. you at least need a 7 string guitar to play it. 


INTRO |0:01| 
============
 C|----------------------------------------------------------------| X6
Ab|----------------------------------------------------------------|
Eb|----------------------------------------------------------------|
Bb|----------------------------------------------------------------|
 F|-5b-----------3b-------5b---------------------------------------|
Bb|----1-1-1-1------0-0------1-1-1-1----0-0-3-1-0-1----------------|

Verse |0:22| X2   "Hey! Is your heart still beating?"
============
 C|----------------------------------------------------------------| 
Ab|----------------------------------------------------------------|
Eb|----------------------------------------------------------------|
Bb|-0--0-----------------------------------------------------------|
 F|-0--0----3-5----5b----------------------------------------------|
Bb|-0--0--------------1-1-1-1---1-1-1-1-1-1------------------------|

 C|----------------------------------------------------------------| 
Ab|----------------------------------------------------------------|
Eb|----------------------------------------------------------------|
Bb|-0--0-----------------------------------------------------------|
 F|-0--0----3------5b----------------------------------------------|
Bb|-0--0------0-------0-0-0-0----0-0-0-0-0-0-----------------------|


PRECHORUS |0:36|   "Oh, where did all your fire go?"
================
 C|-18~--/18-18-18-17-17-15-18--14~--------------------------------| 
Ab|----------------------------------------------------------------|
Eb|----------------------------------------------------------------|
Bb|----------------------------------------------------------------|
 F|----------------------------------------------------------------|
Bb|----------------------------------------------------------------|


CHORUS |0:43| X2   "You're on the inside"
=============
 C|----------------------------------------------------------------| 
Ab|----------------------------------------------------------------|
Eb|----------------------------------------------------------------|
Bb|-0-0--0-0-0--0-0-0--0-0-0--0-6-6-6-6-6-6-6-6-5-5-5-5-3-3-3-3----|
 F|-0-0--0-0-0--0-0-0--0-0-0--0-6-6-6-6-6-6-6-6-5-5-5-5-3-3-3-3----|
Bb|-0-0--0-0-0--0-0-0--0-0-0--0-6-6-6-6-6-6-6-6-5-5-5-5-3-3-3-3----|

 C|----------------------------------------------------------------| 
Ab|----------------------------------------------------------------|
Eb|----------------------------------------------------------------|
Bb|-8-8-8-8-8-8-8-8-5-5-5-5-5-5-5-5-0-0--0-0--0-0------------------|
 F|-8-8-8-8-8-8-8-8-5-5-5-5-5-5-5-5-0-0--0-0--0-0------------------|
Bb|-8-8-8-8-8-8-8-8-5-5-5-5-5-5-5-5-0-0--0-0--0-0------------------|

(2nd time only)
C|-----------------------------------------------------------------|
Ab|----------------------------------------------------------------|
Eb|----------------------------------------------------------------|
Bb|---------------0-0--0-0--0-0------------------------------------|
 F|-----------3---0-0--0-0--0-0------------------------------------|
Bb|-0-3-0-5-6-----0-0--0-0--0-0------------------------------------|

VERSE
CHORUS

SOLO

CHORUS
OUTRO

Tap to rate this tab
# A B C D E F G H I J K L M N O P Q R S T U V W X Y Z