Song name
# A B C D E F G H I J K L M N O P Q R S T U V W X Y Z

We As Human - Take The Bullets Away tab

Artist: WE AS HUMAN
Album:  WE AS HUMAN
Song:   TAKE THE BULLETS AWAY (ft. Lacey Sturm)

Tabbed by: Rulerof52
Tabbed on: Jan 25 2014

You must message me for permission before copying ANY part of this tab!
I personally tabbed it by ear by slowing down the song. 


Either Drop A tuning or 7 string guitar

INTRO |0:11|   
============ 
B|----------------------------------------------------------------|
G|----------------------------------------------------------------|
D|----------------------------------------------------------------|
A|----------------------------------------------------------------|
E|-5-------3-------------5-------3--------------------------------|
A|---0-0-0---0-0-0---0-0---0-0-0---0-0-0--------------------------|

VERSE |0:18| X2   "I've got my finger on the trigger"
===============
B|----------------------------------------------------------------|
G|----------------------------------------------------------------|
D|----------------------------------------------------------------|
A|----------------------------------------------------------------|
E|-5-------3---------5-------3---------5-------3---------5--------|
A|---0-0-0---0-0-0-----0-0-0---0-0-0-----0-0-0---0-0-0-----0-0-0--|

    1st time                    2nd time
B|-------------|    B|---------------------------------|
G|-------------|    G|---------------------------------|
D|-------------|    D|---------------------------------|
A|-1-----------|    A|-5---5-5-5-5-5-5-5-5-5-5-5-5-----|
E|-1-----------|    E|-5---5-5-5-5-5-5-5-5-5-5-5-5-----|
A|-1-----------|    A|-5---5-5-5-5-5-5-5-5-5-5-5-5-----|

CHORUS |0:49|   "Am I worthless?"
=============
B|----------------------------------------------------------------| X2
G|----------------------------------------------------------------|
D|----------------------------------------------------------------|
A|-1-1-1--5--5-5--5--8-8-8--3--3-3--3-----------------------------|
E|-1-1-1--5--5-5--5--8-8-8--3--3-3--3-----------------------------|
A|-1-1-1--5--5-5--5--8-8-8--3--3-3--3-----------------------------|

|1:02|   "If I reach out"
B|----------------------------------------------------------------|
G|----------------------------------------------------------------|
D|-5-5-5-5---------3-3-3-3----------------------------------------|
A|-5-5-5-5-1-1-1-1-3-3-3-3-3-3-3-3-1-1-1-1-4-4-4-4----------------|
E|-3-3-3-3-1-1-1-1-1-1-1-1-3-3-3-3-1-1-1-1-4-4-4-4----------------|
A|---------1-1-1-1---------3-3-3-3-1-1-1-1-4-4-4-4----------------|


INTERLUDE |1:13|   "Take the bullets away!"
================
B|----------------------------------------------------------------|
G|----------------------------------------------------------------|
D|-------0-7-8-7-0-10-0-7-8-7-7-0---------------------------------|
A|-5--------------------------------------------------------------|
E|-5---8----------------------------------------------------------|
A|-5--------------------------------------------------------------|

B|----------------------------------------------------------------|
G|----------------------------------------------------------------|
D|-------0-7-8-7-0-10-0-7-8-7-------------------------------------|
A|-5--------------------------10-8---7~~~~------------------------|
E|-5---8----------------------------------------------------------|
A|-5--------------------------------------------------------------|

VERSE 2
CHORUS

|1:57| 
B|----------------------------------------------------------------|
G|----------------------------------------------------------------|
D|----------------------------------------------------------------|
A|-5-5-5-5-5-5-5-5-5-5-5-5-5-5-5-5--------------------------------|
E|-5-5-5-5-5-5-5-5-5-5-5-5-5-5-5-5--------------------------------|
A|-5-5-5-5-5-5-5-5-5-5-5-5-5-5-5-5--------------------------------|

BRIDGE |2:00|   "You're so disarming"
=============
B|----------------------------------------------------------------| X3
G|----------------------------------------------------------------|
D|----------------------------------------------------------------|
A|-6-6-6--6--6--10-10-10--10--10--8-8-8--8--8--8--8--8--8---------|
E|-6-6-6--6--6--10-10-10--10--10--8-8-8--8--8--8--8--8--8---------|
A|-6-6-6--6--6--10-10-10--10--10--8-8-8--8--8--8--8--8--8---------|

|2:20|   "I'd drop all my weapons"
B|----------------------------------------------------------------|
G|----------------------------------------------------------------|
D|----------------------------------------------------------------|
A|-3-3-3-3-1-1-1-1-0-0-0-0-0-0-0-0-5---------5--------------------|
E|-3-3-3-3-1-1-1-1-0-0-0-0-0-0-0-0-5---------5--------------------|
A|-3-3-3-3-1-1-1-1-0-0-0-0-0-0-0-0-5---------5--------------------|


//GUITAR 2//
BRIDGE |2:00|   "You're so disarming"
=============
B|----------------------------------------------------------------|
G|--------------------9-8--------13b-11---------------------------|
D|-----------/8--7/10------10-8-----------------------------------|
A|----------------------------------------------------------------|
E|----------------------------------------------------------------|
A|----------------------------------------------------------------|

|2:07|    "There's nothing left to fear"
B|------------------------------------11b13b11--------------------|
G|----------15b16-13-16---16-15-13--------------------------------|
D|---------------------------------15-----------------------------|
A|----------------------------------------------------------------|
E|----------------------------------------------------------------|
A|----------------------------------------------------------------|

|2:14|   "You're so disarming"
B|-------11-11-11-11-11-11-10-8----8------------------------------|
G|------------------------------11--------------------------------|
D|----------------------------------------------------------------|
A|----------------------------------------------------------------|
E|----------------------------------------------------------------|
A|----------------------------------------------------------------|

SOLO |2:20|    "I'd drop all my weapons"
===========
B|-------------------------18-------------------------------------| X2
G|----------------15-16-18----18-16-15----------------------------|
D|-------------15----------------------15-------------------------|
A|-------15-17----------------------------17-15-------------------|
E|-17-18----------------------------------------18----------------|
A|----------------------------------------------------------------|

B|-------------------------18-11-10-11-17-11-10-11-20-11-10-11----| 
G|----------------15-16-18----------------------------------------|
D|-------------15-------------------------------------------------|
A|-------15-17----------------------------------------------------|
E|-17-18----------------------------------------------------------|
A|----------------------------------------------------------------|

B|-18-11-10-11-17-11-10-11----16~---------------------------------|
G|----------------------------------------------------------------|
D|----------------------------------------------------------------|
A|----------------------------------------------------------------|
E|----------------------------------------------------------------|
A|----------------------------------------------------------------|


|2:28|   "Take the bullets away!"
B|----------------------------------------------------------------|
G|-6-8-15-8-6-8-20-8-6-8-15-8-6-8-18-8-6-8-15-8-6-8-15-15~-6-8-15-|
D|----------------------------------------------------------------|
A|----------------------------------------------------------------|
E|----------------------------------------------------------------|
A|----------------------------------------------------------------|
                                                    3        3 
                                                |------| |------|
B|----------------------------------23-22-18-17-------------------|
G|-8-6-8-20-8-6-8-15-8-6-8-18-8-6-8-------------20-18-17-18-17-15-|
D|----------------------------------------------------------------|
A|----------------------------------------------------------------|
E|----------------------------------------------------------------|
A|----------------------------------------------------------------|

CHORUS
INTERLUDE

OUTRO |3:12| 
============
B|-----------|
G|-----------|
D|-----------|
A|-1--0------|
E|-1--0------|
A|-1--0------|

| /  slide up
| \  slide down
| h  hammer-on
| p  pull-off
| ~  vibrato
| x  Mute note
| .  palm mute
| b  bend
Tap to rate this tab
# A B C D E F G H I J K L M N O P Q R S T U V W X Y Z