Song name
# A B C D E F G H I J K L M N O P Q R S T U V W X Y Z

We As Human - Sever tab

Artist: WE AS HUMAN
Album:  WE AS HUMAN
Song:   SEVER

Tabbed by: Rulerof52
Tabbed on: Jan 25 2014

You must message me for permission before copying ANY part of this tab!
I personally tabbed it by ear by slowing down the song. 



INTRO |0:05| X2   
===============
D|----------------------------------------------------------------|
A|----------------------------------------------------------------|
F|----------------------------------------------------------------|
C|----------------------------------------------------------------|
G|----------------------------------------------------------------|
C|-12-10-12-0-13-12-10-12~---10-12-0-13-12-10-12~-----------------|


D|----------------------------------------------------------------|
A|----------------------------------------------------------------|
F|----------------------------------------------------------------|
C|----------------------------------------------------------------|
G|--------------------------5-5-5---------------------------------|
C|-10-12-0-13-12-10---1-1-1-------3-0-----------------------------|


VERSE |0:16|   "Sundown, it's time to feed it"
============
D|----------------------------------------------------------------| X2
A|----------------------------------------------------------------|
F|----------------------------------------------------------------|
C|---------0------------0------------0----------------------------|
G|-0--0-0--0-0--0--0-0--0-0--0--0-0--0-0--0-------5-5-5-----------|
C|-0--0-0--0-0--0--0-0--0-0--0--0-0--0-0--0-1-1-1-------3---------|

|0:27|   "I see you shiver"
D|----------------------------------------------------------------| X2
A|-----------------------------------------8-8-8-6----------------|
F|-----------------------------------8-8-8------------------------|
C|-------------------/7~------------------------------------------|
G|-0--0-0--/5~--0-0-------0-0--/5~--------------------------------|
C|-0--0-0-------0-0-------0-0-------------------------------------|


PRECHORUS |0:38|   "And I see a new day rising"
================
D|----------------------------------------------------------------|
A|----------------------------------------------------------------|
F|----------------------------------------------------------------|
C|-8--8-8--8-8---8-8--8-8-8---0--0-0--10---10-10--10-10-10--------|
G|-8--8-8--8-8---8-8--8-8-8---0--0-0--10---10-10--10-10-10--------|
C|-8--8-8--8-8---8-8--8-8-8---0--0-0--10---10-10--10-10-10--------|


D|----------------------------------------------------------------|
A|----------------------------------------------------------------|
F|----------------------------------------------------------------|
C|-8--8-8--8-8---8-8--8-8-8---7--7-7--7-7---7---------------------|
G|-8--8-8--8-8---8-8--8-8-8---7--7-7--7-7---7---------------------|
C|-8--8-8--8-8---8-8--8-8-8---7--7-7--7-7---7---------------------|



CHORUS |0:47| X2   "Separate my soul"
================
D|----------------------------------------------------------------|
A|----------------------------------------------------------------|
F|----------------------------------------------------------------|
C|-0--0--0--0-0--0---8--8--8--8-8--8---10--10--10--10-10--10------|
G|-0--0--0--0-0--0---8--8--8--8-8--8---10--10--10--10-10--10------|
C|-0--0--0--0-0--0---8--8--8--8-8--8---10--10--10--10-10--10------|

                          1st time                   2nd time
D|---------------------------------|   D|---------------------|
A|---------------------------------|   A|---------------------|
F|-------------10-p9-p7------------|   F|---------------------|
C|-7-7-7-7-7-7----------10-p8-p7---|   C|-7--7--7-------------|
G|-7-7-7-7-7-7---------------------|   G|-7--7--7-------------|
C|-7-7-7-7-7-7---------------------|   C|-7--7--7-------------|


INTRO
VERSE
PRECHORUS
CHORUS


BRIDGE |2:08|   "I cut the ties"
=============
D|----------------------------------------------------------------|
A|----------------------------------------------------------------|
F|----------------------------------------------------------------|
C|-7~--5-7-0-8-7-5-7~--5-7-0-8-7-5-7~--5-7-0-8-7-5~-7-5-7-0-8-7-5-|
G|----------------------------------------------------------------|
C|----------------------------------------------------------------|


D|----------------------------------------------------------------|
A|----------------------------------------------------------------|
F|----------------------------------------------------------------|
C|-5--5--5--5--5---8--8--8--8--8----------------------------------|
G|-5--5--5--5--5---8--8--8--8--8----------------------------------|
C|-5--5--5--5--5---8--8--8--8--8----------------------------------|


SOLO |2:24|   "I shed the skin underneath"
===========
D|-17b18b17-------------------------------------------------------|
A|----------18-17-------------------------------------------------|
F|----------------15-14-------------------------------------------|
C|----------------------17-15-14----------------------12-14-15~---|
G|-------------------------------17-------10/12-13-15-------------|
C|----------------------------------12-15-------------------------|


D|-------------------------10-------------------------------------|
A|----------------10-11-13-----13-11-10---------------10/12-13-15-|
F|----------10-12-----------------------12-10-9-10-12-------------|
C|----10-12-------------------------------------------------------|
G|-12-------------------------------------------------------------|
C|----------------------------------------------------------------|


D|----17----------20----22~------20h22p20-------------------------|
A|-17----18-17-15----18-------------------22b23~------------------|
F|----------------------------------------------------------------|
C|----------------------------------------------------------------|
G|----------------------------------------------------------------|
C|----------------------------------------------------------------|


CHORUS REPRISE |2:38|   "Separate my soul"
=====================
D|----------------------------------------------------------------|
A|----------------------------------------------------------------|
F|----------------------------------------------------------------|
C|-3--3--3--35~---3--3--3--35~---------------2~----7-7-7-7-7----|
G|---------------------------------3--3--3--3--------7-7-7-7-7----|
C|---------------------------------------------------7-7-7-7-7----|


CHORUS 
INTRO


| /  slide up
| \  slide down
| h  hammer-on
| p  pull-off
| ~  vibrato
| x  Mute note
| .  palm mute
| b  bend
Tap to rate this tab
 
# A B C D E F G H I J K L M N O P Q R S T U V W X Y Z