Song name
# A B C D E F G H I J K L M N O P Q R S T U V W X Y Z

We As Human - We Fall Apart tab

 I believe this song is in dropped c but i learned it by ear in d.

VERSE 1

  The worlds on fire...............though its all
E|----------------------------------------------------------------|
B|----------------------------------------------------------------|
G|5-5-5-5-5-5-5-5-5-5-5-5-5-5-5-5---------------------------------|
D|5-5-5-5-5-5-5-5-5-5-5-5-5-5-5-5-3-3-3-3-3-3-3-3-3-3-3-3-3-3-3-3-|
A|3-3-3-3-3-3-3-3-3-3-3-3-3-3-3-3-3-3-3-3-3-3-3-3-3-3-3-3-3-3-3-3-|
D|--------------------------------3-3-3-3-3-3-3-3-3-3-3-3-3-3-3-3-|


   But life is short...............Laughing through it all
E|----------------------------------------------------------------|
B|----------------------------------------------------------------|
G|5-5-5-5-5-5-5-5-5-5-5-5-5-5-5-5---------------------------------|
D|5-5-5-5-5-5-5-5-5-5-5-5-5-5-5-5-3-3-3-3-3-3-3-3-3-3-3-3-3-3-3-3-|
A|3-3-3-3-3-3-3-3-3-3-3-3-3-3-3-3-3-3-3-3-3-3-3-3-3-3-3-3-3-3-3-3-|
D|--------------------------------3-3-3-3-3-3-3-3-3-3-3-3-3-3-3-3-|

  its the battle within...........with both sides standing
E|----------------------------------------------------------------|
B|----------------------------------------------------------------|
G|5-5-5-5-5-5-5-5-5-5-5-5-5-5-5-5---------------------------------|
D|5-5-5-5-5-5-5-5-5-5-5-5-5-5-5-5-3-3-3-3-3-3-3-3-3-3-3-3-3-3-3-3-|
A|3-3-3-3-3-3-3-3-3-3-3-3-3-3-3-3-3-3-3-3-3-3-3-3-3-3-3-3-3-3-3-3-|
D|--------------------------------3-3-3-3-3-3-3-3-3-3-3-3-3-3-3-3-|


  its the permanent scars.........its the things that
E|----------------------------------------------------------------|
B|----------------------------------------------------------------|
G|5-5-5-5-5-5-5-5-5-5-5-5-5-5-5-5---------------------------------|
D|5-5-5-5-5-5-5-5-5-5-5-5-5-5-5-5-3-3-3-3-3-3-3-3-3-3-3-3-3-3-3-3-|
A|3-3-3-3-3-3-3-3-3-3-3-3-3-3-3-3-3-3-3-3-3-3-3-3-3-3-3-3-3-3-3-3-|
D|--------------------------------3-3-3-3-3-3-3-3-3-3-3-3-3-3-3-3-|

CHORUS
  Beautiful.......................way we fall apart
E|----------------------------------------------------------------|
B|----------------------------------------------------------------|
G|5-5-5-5-5-5-5-5-5-5-5-5-5-5-5-5---------------------------------|
D|5-5-5-5-5-5-5-5-5-5-5-5-5-5-5-5-3-3-3-3-3-3-3-3-3-3-3-3-3-3-3-3-|
A|3-3-3-3-3-3-3-3-3-3-3-3-3-3-3-3-3-3-3-3-3-3-3-3-3-3-3-3-3-3-3-3-|
D|--------------------------------3-3-3-3-3-3-3-3-3-3-3-3-3-3-3-3-|

  magical and.....................ways we break our hearts
E|----------------------------------------------------------------|
B|----------------------------------------------------------------|
G|7-7-7-7-7-7-7-7-7-7-7-7-7-7-7-7-5-5-5-5-5-5-5-5-5-5-5-5-5-5-5-5-|
D|7-7-7-7-7-7-7-7-7-7-7-7-7-7-7-7-5-5-5-5-5-5-5-5-5-5-5-5-5-5-5-5-|
A|5-5-5-5-5-5-5-5-5-5-5-5-5-5-5-5-3-3-3-3-3-3-3-3-3-3-3-3-3-3-3-3-|
D|----------------------------------------------------------------|

  predictable...................miserable
E|----------------------------------------------------------------|
B|----------------------------------------------------------------|
G|5-5-5-5-5-5-5-5-5-5-5-5-5-5-5-5---------------------------------|
D|5-5-5-5-5-5-5-5-5-5-5-5-5-5-5-5-3-3-3-3-3-3-3-3-3-3-3-3-3-3-3-3-|
A|3-3-3-3-3-3-3-3-3-3-3-3-3-3-3-3-3-3-3-3-3-3-3-3-3-3-3-3-3-3-3-3-|
D|--------------------------------3-3-3-3-3-3-3-3-3-3-3-3-3-3-3-3-|


  invincible.....................are isnt it
E|----------------------------------------------------------------|
B|----------------------------------------------------------------|
G|7-7-7-7-7-7-7-7-7-7-7-7-7-7-7-7-5-5-5-5-5-5-5-5-5-5-5-5-5-5-5-5-|
D|7-7-7-7-7-7-7-7-7-7-7-7-7-7-7-7-5-5-5-5-5-5-5-5-5-5-5-5-5-5-5-5-|
A|5-5-5-5-5-5-5-5-5-5-5-5-5-5-5-5-3-3-3-3-3-3-3-3-3-3-3-3-3-3-3-3-|
D|----------------------------------------------------------------|

  beautiful the way we fall       apart
E|----------------------------------------------------------------|
B|----------------------------------------------------------------|
G|7-7-7-7-7-7-7-7-7-7-7-7-7-7-7-7-5-5-5-5-5-5-5-5-5-5-5-5-5-5-5-5-|
D|7-7-7-7-7-7-7-7-7-7-7-7-7-7-7-7-5-5-5-5-5-5-5-5-5-5-5-5-5-5-5-5-|
A|5-5-5-5-5-5-5-5-5-5-5-5-5-5-5-5-3-3-3-3-3-3-3-3-3-3-3-3-3-3-3-3-|
D|----------------------------------------------------------------|


VERSE 2


  you're a liar...................I can't throw
E|----------------------------------------------------------------|
B|----------------------------------------------------------------|
G|5-5-5-5-5-5-5-5-5-5-5-5-5-5-5-5---------------------------------|
D|5-5-5-5-5-5-5-5-5-5-5-5-5-5-5-5-3-3-3-3-3-3-3-3-3-3-3-3-3-3-3-3-|
A|3-3-3-3-3-3-3-3-3-3-3-3-3-3-3-3-3-3-3-3-3-3-3-3-3-3-3-3-3-3-3-3-|
D|--------------------------------3-3-3-3-3-3-3-3-3-3-3-3-3-3-3-3-|


  we're so imperfect.............because we're not alone
E|----------------------------------------------------------------|
B|----------------------------------------------------------------|
G|5-5-5-5-5-5-5-5-5-5-5-5-5-5-5-5---------------------------------|
D|5-5-5-5-5-5-5-5-5-5-5-5-5-5-5-5-3-3-3-3-3-3-3-3-3-3-3-3-3-3-3-3-|
A|3-3-3-3-3-3-3-3-3-3-3-3-3-3-3-3-3-3-3-3-3-3-3-3-3-3-3-3-3-3-3-3-|
D|--------------------------------3-3-3-3-3-3-3-3-3-3-3-3-3-3-3-3-|

  it's the wars that..............for better or for
E|----------------------------------------------------------------|
B|----------------------------------------------------------------|
G|5-5-5-5-5-5-5-5-5-5-5-5-5-5-5-5---------------------------------|
D|5-5-5-5-5-5-5-5-5-5-5-5-5-5-5-5-3-3-3-3-3-3-3-3-3-3-3-3-3-3-3-3-|
A|3-3-3-3-3-3-3-3-3-3-3-3-3-3-3-3-3-3-3-3-3-3-3-3-3-3-3-3-3-3-3-3-|
D|--------------------------------3-3-3-3-3-3-3-3-3-3-3-3-3-3-3-3-|

  the lions we cage...............that keeps us
E|----------------------------------------------------------------|
B|----------------------------------------------------------------|
G|5-5-5-5-5-5-5-5-5-5-5-5-5-5-5-5---------------------------------|
D|5-5-5-5-5-5-5-5-5-5-5-5-5-5-5-5-3-3-3-3-3-3-3-3-3-3-3-3-3-3-3-3-|
A|3-3-3-3-3-3-3-3-3-3-3-3-3-3-3-3-3-3-3-3-3-3-3-3-3-3-3-3-3-3-3-3-|
D|--------------------------------3-3-3-3-3-3-3-3-3-3-3-3-3-3-3-3-|


CHORUS
  Beautiful.......................way we fall apart
E|----------------------------------------------------------------|
B|----------------------------------------------------------------|
G|5-5-5-5-5-5-5-5-5-5-5-5-5-5-5-5---------------------------------|
D|5-5-5-5-5-5-5-5-5-5-5-5-5-5-5-5-3-3-3-3-3-3-3-3-3-3-3-3-3-3-3-3-|
A|3-3-3-3-3-3-3-3-3-3-3-3-3-3-3-3-3-3-3-3-3-3-3-3-3-3-3-3-3-3-3-3-|
D|--------------------------------3-3-3-3-3-3-3-3-3-3-3-3-3-3-3-3-|

  magical and.....................ways we break our hearts
E|----------------------------------------------------------------|
B|----------------------------------------------------------------|
G|7-7-7-7-7-7-7-7-7-7-7-7-7-7-7-7-5-5-5-5-5-5-5-5-5-5-5-5-5-5-5-5-|
D|7-7-7-7-7-7-7-7-7-7-7-7-7-7-7-7-5-5-5-5-5-5-5-5-5-5-5-5-5-5-5-5-|
A|5-5-5-5-5-5-5-5-5-5-5-5-5-5-5-5-3-3-3-3-3-3-3-3-3-3-3-3-3-3-3-3-|
D|----------------------------------------------------------------|

  predictable...................miserable
E|----------------------------------------------------------------|
B|----------------------------------------------------------------|
G|5-5-5-5-5-5-5-5-5-5-5-5-5-5-5-5---------------------------------|
D|5-5-5-5-5-5-5-5-5-5-5-5-5-5-5-5-3-3-3-3-3-3-3-3-3-3-3-3-3-3-3-3-|
A|3-3-3-3-3-3-3-3-3-3-3-3-3-3-3-3-3-3-3-3-3-3-3-3-3-3-3-3-3-3-3-3-|
D|--------------------------------3-3-3-3-3-3-3-3-3-3-3-3-3-3-3-3-|


  invincible.....................are isnt it
E|----------------------------------------------------------------|
B|----------------------------------------------------------------|
G|7-7-7-7-7-7-7-7-7-7-7-7-7-7-7-7-5-5-5-5-5-5-5-5-5-5-5-5-5-5-5-5-|
D|7-7-7-7-7-7-7-7-7-7-7-7-7-7-7-7-5-5-5-5-5-5-5-5-5-5-5-5-5-5-5-5-|
A|5-5-5-5-5-5-5-5-5-5-5-5-5-5-5-5-3-3-3-3-3-3-3-3-3-3-3-3-3-3-3-3-|
D|----------------------------------------------------------------|

  beautiful the way we fall       apart
E|----------------------------------------------------------------|
B|----------------------------------------------------------------|
G|7-7-7-7-7-7-7-7-7-7-7-7-7-7-7-7-5-5-5-5-5-5-5-5-5-5-5-5-5-5-5-5-|
D|7-7-7-7-7-7-7-7-7-7-7-7-7-7-7-7-5-5-5-5-5-5-5-5-5-5-5-5-5-5-5-5-|
A|5-5-5-5-5-5-5-5-5-5-5-5-5-5-5-5-3-3-3-3-3-3-3-3-3-3-3-3-3-3-3-3-|
D|----------------------------------------------------------------|


BRIDGE

  the world is dark..............love to spark
E|----------------------------------------------------------------|
B|----------------------------------------------------------------|
G|--------------------------------9-9-9-9-9-9-9-9-9-9-9-9-9-9-9-9-|
D|9-9-9-9-9-9-9-9-9-9-9-9-9-9-9-9-9-9-9-9-9-9-9-9-9-9-9-9-9-9-9-9-|
A|9-9-9-9-9-9-9-9-9-9-9-9-9-9-9-9-7-7-7-7-7-7-7-7-7-7-7-7-7-7-7-7-|
D|9-9-9-9-9-9-9-9-9-9-9-9-9-9-9-9---------------------------------|


  fire once.......again..isnt it beautiful the way we fall apart
E|--------------------------|
B|--------------------------|
G|7-7-7-7-7-7-7-7-5---------|
D|7-7-7-7-7-7-7-7-5---------|
A|5-5-5-5-5-5-5-5-3---------|
D|--------------------------|

hold the C

isnt it beautiful the way we fall apart
isnt it beautiful

CHORUS
  wonderful.......................way we fall apart
E|----------------------------------------------------------------|
B|----------------------------------------------------------------|
G|5-5-5-5-5-5-5-5-5-5-5-5-5-5-5-5---------------------------------|
D|5-5-5-5-5-5-5-5-5-5-5-5-5-5-5-5-3-3-3-3-3-3-3-3-3-3-3-3-3-3-3-3-|
A|3-3-3-3-3-3-3-3-3-3-3-3-3-3-3-3-3-3-3-3-3-3-3-3-3-3-3-3-3-3-3-3-|
D|--------------------------------3-3-3-3-3-3-3-3-3-3-3-3-3-3-3-3-|

  magical and.....................ways we break our hearts
E|----------------------------------------------------------------|
B|----------------------------------------------------------------|
G|7-7-7-7-7-7-7-7-7-7-7-7-7-7-7-7-5-5-5-5-5-5-5-5-5-5-5-5-5-5-5-5-|
D|7-7-7-7-7-7-7-7-7-7-7-7-7-7-7-7-5-5-5-5-5-5-5-5-5-5-5-5-5-5-5-5-|
A|5-5-5-5-5-5-5-5-5-5-5-5-5-5-5-5-3-3-3-3-3-3-3-3-3-3-3-3-3-3-3-3-|
D|----------------------------------------------------------------|

  predictable...................miserable
E|----------------------------------------------------------------|
B|----------------------------------------------------------------|
G|5-5-5-5-5-5-5-5-5-5-5-5-5-5-5-5---------------------------------|
D|5-5-5-5-5-5-5-5-5-5-5-5-5-5-5-5-3-3-3-3-3-3-3-3-3-3-3-3-3-3-3-3-|
A|3-3-3-3-3-3-3-3-3-3-3-3-3-3-3-3-3-3-3-3-3-3-3-3-3-3-3-3-3-3-3-3-|
D|--------------------------------3-3-3-3-3-3-3-3-3-3-3-3-3-3-3-3-|


  invincible.....................are isnt it
E|----------------------------------------------------------------|
B|----------------------------------------------------------------|
G|7-7-7-7-7-7-7-7-7-7-7-7-7-7-7-7-5-5-5-5-5-5-5-5-5-5-5-5-5-5-5-5-|
D|7-7-7-7-7-7-7-7-7-7-7-7-7-7-7-7-5-5-5-5-5-5-5-5-5-5-5-5-5-5-5-5-|
A|5-5-5-5-5-5-5-5-5-5-5-5-5-5-5-5-3-3-3-3-3-3-3-3-3-3-3-3-3-3-3-3-|
D|----------------------------------------------------------------|

  beautiful the way we fall       apart
E|----------------------------------------------------------------|
B|----------------------------------------------------------------|
G|7-7-7-7-7-7-7-7-7-7-7-7-7-7-7-7-5-5-5-5-5-5-5-5-5-5-5-5-5-5-5-5-|
D|7-7-7-7-7-7-7-7-7-7-7-7-7-7-7-7-5-5-5-5-5-5-5-5-5-5-5-5-5-5-5-5-|
A|5-5-5-5-5-5-5-5-5-5-5-5-5-5-5-5-3-3-3-3-3-3-3-3-3-3-3-3-3-3-3-3-|
D|----------------------------------------------------------------|


  isnt it beautiful...............the way we fall apart
E|----------------------------------------------------------------|
B|----------------------------------------------------------------|
G|7-7-7-7-7-7-7-7-7-7-7-7-7-7-7-7-5-5-5-5-5-5-5-5-5-5-5-5-5-5-5-5-|
D|7-7-7-7-7-7-7-7-7-7-7-7-7-7-7-7-5-5-5-5-5-5-5-5-5-5-5-5-5-5-5-5-|
A|5-5-5-5-5-5-5-5-5-5-5-5-5-5-5-5-3-3-3-3-3-3-3-3-3-3-3-3-3-3-3-3-|
D|----------------------------------------------------------------|
Tap to rate this tab
# A B C D E F G H I J K L M N O P Q R S T U V W X Y Z