Song name
# A B C D E F G H I J K L M N O P Q R S T U V W X Y Z

We Butter The Bread With Butter - World Of Warcraft tab

-------------------------------------------------------------------------------
	   World Of Warcraft - We butter the bread with butter
-------------------------------------------------------------------------------
Tabbed by: Nathan
Email:nayt_dawg@hotmail.com

Tuning: Drop C


Funky keyboard riff

First way - picking

D|---------------------------------------------------------------------------|
A|------------------------------------------------------------------------*--|
F|--7---7--9--7---9------9--10-----12---10---9---10--------------------------|
C|----7-------------7----------7---------------------------------------------|
G|------------------------------------------------------------------------*--|
C|---------------------------------------------------------------------------|


    Second way - tapping (Same principles)


D|---------------------------------------------------------------------------|
A|------------------------------------------------------------------------*--|
F|--t7--p2---t7---t9---t7----t9---p2---t9---t11---p2---t12--t10---t9---t10---|
C|---------------------------------------------------------------------------|
G|------------------------------------------------------------------------*--|
C|---------------------------------------------------------------------------|

Speed Strumming to speed of kickdrum

D|---------------------------------------------------------------------------|
A|---------------------------------------------------------------------------|
F|---------------------------------------------------------------------------|
C|---10--------------------------------7-----2-----1-------------------------|
G|---10-----(As many times as needed)--7-----2-----1--------(x2)-------------|
C|---10--------------------------------7-----2-----1-------------------------|

     STRIKE ONCE
 
D|---------------------------------------------------------------------------|
A|---------------------------------------------------------------------------|
F|---------------------------------------------------------------------------|
C|---10-----7------2---------------------------------------------------------|
G|---10-----7------2---------------------------------------------------------|
C|---10-----7------2---------------------------------------------------------|

D|---------------------------------------------------------------------------|
A|---------------------------------------------------------------------------|
F|---------------------------------------------------------------------------|
C|---2-2-2-2------2-2-2-2-----2-2-2-2--2---2-----2---------------------------|
G|---2-2-2-2------2-2-2-2-----2-2-2-2--2---2-----2----let ring---------------|
C|---2-2-2-2------2-2-2-2-----2-2-2-2--2---2-----2---------------------------|



More coming soon

| /  slide up
| \  slide down
| h  hammer-on
| p  pull-off
| ~  vibrato
| +  harmonic
| x  Mute note
===============================================================================
Tap to rate this tab
# A B C D E F G H I J K L M N O P Q R S T U V W X Y Z