Song name
# A B C D E F G H I J K L M N O P Q R S T U V W X Y Z

We Butter The Bread With Butter - Schlaf Kindlein Schlaf tab

This is my very first tab and song iv done by ear. Im sure its just about perfect




d:---------------------------------------------------------------------------|
a:---------------------------------------------------------------------------|
f:---------------------------------------------------------------------------|
c:888888887777777775555444444444445555555557777778888888---------------------|
g:------------------------------------------------------888888888------------|
c:---------------------------------------------------------------------------|

play that intro 2x
then verse

d:---------------------------------------------------------------------------|
a:---------------------------------------------------------------------------|
f:-----------------------------0--2--3---------------------------------------|
c:----8--7---5--4---4----4-------------3---3----3----------------------------|
g:---------------------------------------------------------------------------|
c:5-5--5---5-----0-0--0-0---1-1--1--1---0-0--0-0-----------------------------|

play that 2x
then i dont know what to call this i guess its a breakdown type thing lol

d:--------------------------------------------------------------------------|
a:--------------------------------------------------------------------------|
f:--------------------------------------------------------------------------|
c:55-55---55-00-0-00-0-00-11-11---11-00-0-00-0-00---------------------------|
g:55-55---55-00-0-00-0-00-11-11---11-00-0-00-0-00---------------------------|
c:55-55---55-00-0-00-0-00-11-11---11-00-0-00-0-00---------------------------|
                         /
play that 4x and those  / are ones not elevens just to clarify
then

d:--------------------------------------------------------------------------|
a:--------------------------------------------------------------------------|
f:--------------------------------------------------------------------------|
c:--------------------------------------------------------------------------|
g:----55551110000011113333555551111110000-----------------------------------|
c:5555----------------------------------------------------------------------|

play 2x
repeat verse 2x
play breakdown thing 2x

d:--------------------------------------------------------------------------|
a:--------------------------------------------------------------------------|
f:--------------------------------------------------------------------------|
c:1--------5-------0--------4-----------------------------------------------|
g:1--------5-------0--------4-----------------------------------------------|
c:1--------5-------0--------4-----------------------------------------------|

the next part you use the same chords but do like a triplet with them im just to lazy to 
type that all out

then intro 2x
outro

d:-----
a:-----
f:-----
c:5----
g:5----
c:5----
Tap to rate this tab
 
# A B C D E F G H I J K L M N O P Q R S T U V W X Y Z