Song name
# A B C D E F G H I J K L M N O P Q R S T U V W X Y Z

We Came As Romans - Glad You Came tab

Tuning: Drop-D

INTRO

Electric 2
Clean/Piano

E|---------|
B|---------|
G|---------|
D|-1-8-5-3-|
A|-1-8-5-3-|
D|-1-8-5-3-|

INTRO (Part 2)

Electric 1
Clean/Synth

E|-----------------------------------------------------------------|
B|-----8-6--------------8-6--------6------8-6-------6------8-6-----|
G|---------777-5-------------777-57-7---------777-57-7---------7-5-|
D|-555-----------8--555---------------555--------------555---------|
A|-----------------------------------------------------------------|
D|-----------------------------------------------------------------|

VERSE

Electric 2
Clean

E|--------------------|
B|--------------------|
G|--------------------|
D|--------------------|
A|--------------------|
D|-1-1-1-1/3/-5-5-5-5-|

VERSE (Part 2)

Electric 1
Distortion

E|--------------------   ------- -------------------------------|
B|--------------------   ------- -------------------------------|
G|--------------------   ------- -------------------------------|
D|-1-1-1-1/3/-5-5-5-5- X2------- -1-1-1-1/3/-5-5-5-5-1-1-1-1-/3-|
A|-1-1-1-1/3/-5-5-5-5-   -5-/-8- -1-1-1-1/3/-5-5-5-5-1-1-1-1-/3-|
D|-1-1-1-1/3/-5-5-5-5-   --5/-8- -1-1-1-1/3/-5-5-5-5-1-1-1-1-/3-|

Electric 2
Distortion

E|---------------------|
B|---------------------|
G|---------------------|
D|-1-1-1-1-1-5-5-5-5-5-|
A|-1-1-1-1-1-5-5-5-5-5-|
D|-1-1-1-1-1-5-5-5-5-5-|

Chorus

Electric 1
Distortion
E|--------15-13---------------------15-13-----------13---|
B|--------------151515-13----------------151515-1315--15-|
G|-121212-----------------15-121212----------------------|
D|-------------------------------------------------------|
A|-------------------------------------------------------|
D|-------------------------------------------------------|

--------15-13------------13----------15-13-------|
--------------151515-1315--15--------------15-13-|
-121212-----------------------121212-------------|
-------------------------------------------------|
-------------------------------------------------|
-------------------------------------------------|

Electric 2
Distortion
E|--------------------|
B|--------------------|
G|--------------------|
D|-1-1-1-1/3/-5-5-5-5-|
A|-1-1-1-1/3/-5-5-5-5-|
D|-1-1-1-1/3/-5-5-5-5-|

BREAKDOWN

ELECTRIC 1-2

Electric 1
Distortion

E|-----------------------------------------------------15-13----|
B|----------------------------------------------------------15--|
G|--------------------------------------------------------------|
D|-1-1-1-1/3/-5-5-5-5-------1-1-1-1/3/-5-5-5-5-1-1-1-1----------|
A|-1-1-1-1/3/-5-5-5-5-5-/-8-1-1-1-1/3/-5-5-5-5-1-1-1-1----------|
D|-1-1-1-1/3/-5-5-5-5-5-/-8-1-1-1-1/3/-5-5-5-5-1-1-1-1----------|

-----------------------------|
-----------------------------|
-----------------------------|
-5-5-5-5-------1-1-1-1-\\\\3-|
-5-5-5-5-5-/-8-1-1-1-1-\\\\3-|
-5-5-5-5-5-/-8-1-1-1-1-\\\\3-|

VERSE

(with distortion)

CHORUS

BREAKDOWN

BRIDGE
(play breakdown underneath)

Electric 1

E|---------|
B|-8-10-11-|
G|---------|
D|---------|  (mess around with this this is the original notes but you can
A|---------|   make up your own solo :P)
D|---------|

End with INTRO
Tap to rate this tab
# A B C D E F G H I J K L M N O P Q R S T U V W X Y Z