Song name
# A B C D E F G H I J K L M N O P Q R S T U V W X Y Z

We Came As Romans - Fade Away tab

The song is played in Drop A#/Drop B flat

intro:(0:07-0:15)
e|--------------------------------------------------------------------------|
B|--------------------------------------------------------------------------|
G|--------------------------------------------------------------------------|
D|--------------------------------------------------------------------------|
A|--------------------------------------------------------------------------|
E|-0-0-0-0-3-0--000003-0-8-7------------------------------------------------|
     .   .      .....

verse:(0:15-0:45)
e|--------------------------------------------------------------------------|
B|--------------------------------------------------------------------------|
G|--------------------------------------------------------------------------|
D|--------------------------------------------------------------------------|
A|--------------------------------------------------------------------------|
E|-000003-0--8-8-8-8-888-8-7-7-7-7--0-0-0-0-3-0--8-8-8-8-888-10-10-10-10-10-|
   .....       .   . ...   .   .      .   .        .   . ...    .     .


Pre-chorus:(0:45-0:48)
  e|------------------------------------------------------------------------|
B|--------------------------------------------------------------------------|
G|--------------------------------------------------------------------------|
D|-8----3----2--------------------------------------------------------------|
A|-8(8x)3(4x)2(4x)----------------------------------------------------------|
E|-8----3----2--------------------------------------------------------------|
   .    .    .

Chorus:(0:48-1:17)   (2x)then this (2x)
e|----------------------/---------------------------------------------------|
B|----------------------/---------------------------------------------------|
G|----------------------/---------------------------------------------------|
D|-0----8----3----5-----/-0----8----10----5----10---------------------------|
A|-0(8x)8(8x)3(8x)5(8x)-/-0(8x)8(8x)10(8x)5(4x)10(4x)-----------------------|
E|-0----8----3----5-----/-0----8----10----5----10---------------------------|

repeat intro
repeat verse 2x
repeat pre-chorus but end on 3
repeat chorus

(2:28-2:50)
e|----------------------------------------------------------------------------|
B|----------------------------------------------------------------------------|
E|----------------------------------------------------------------------------|
D|-8----3----2----5-----8----3----2----5-----8----10----8---3-----2----0------|
A|-8(8x)3(4x)2(4x)5(15x)8(8x)3(4x)2(4x)5(15x)8(8x)10(8x)8(8x)3(4x)2(4x)0------|
E|-8----3----2----5-----8----3----2----5-----8----10----8----3----2----0------|
   .    .    .                                          .    .    .
repeat chorus
repeat intro
Tap to rate this tab
# A B C D E F G H I J K L M N O P Q R S T U V W X Y Z