Song name
# A B C D E F G H I J K L M N O P Q R S T U V W X Y Z

We Came As Romans - To Plant A Seed tab

-------------------------------------------------------------------------------
			To Plant A Seed - We Came As Romans
-------------------------------------------------------------------------------
Tabbed by: Guitar1000Manx
E-mail: guitarbeast100@gmail.com

Tuning: Drop D

e|----------------------------|
B|----------------------------|
G|-3-----------3-----2--------|
D|-3--3--0~----3--3--2--1--0~-|(2x)
A|-1--3--0~----1--3--0--1--0~-|
D|----3--0~-------3-----1--0~-|

e|-------------------------|
B|-------------------------|
G|-3-----2------3-----2----|
D|-3--3--2--1---3--3--2--1-|
A|-1--3--0--1---1--3--0--1-|
D|----3-----1------3-----1-|

e|-------------------------------------------------------|
B|-------------------------------------------------------|
G|-------------------------------------------------------|
D|-------------------------------------------------------|
A|-0--0-0-0-0---0-0-0-0--0---0-0-0-0-0-0-8-8-8-8-8-8-8-8-|
D|-0--0-0-0-0---0-0-0-0--0---0-0-0-0-0-0-8-8-8-8-8-8-8-8-|
   .  . . . .   . . . .  .   . . . . . . . . . . . . . .

e|-----------------------------------|
B|-----------------------------------|
G|-----------------------------------|
D|-----------------------------------|
A|-0-0000---0000-0---0000000---------|
D|-0-0000---0000-0---0000000-1p0-3b--|
   
e|-------------------------------------------------------------------------|
B|-------------------------------------------------------------------------|
G|-------------------------------------------------------------------------|
D|-------------------------------------------------------------------------|
A|-0--0-0-0-0-------0-0-0-0-0-0---8-8-8-8-8-8-8-8---0-0-0-0--0-0-0-0-0-0-0-|
D|-0--0-0-0-0-------0-0-0-0-0-0---8-8-8-8-8-8-8-8---0-0-0-0--0-0-0-0-0-0-0-|
   .  . . . .       . . . . . .   . . . . . . . .   . . . .  . . . . . . .
e|--------------------------------------------------------------------|
B|-------13/15--------------------------------------------------------|
G|----10-------14-12-----------17----17----17----17----17----17----17-|
D|-12----------------15-14--15----15----15----15----15----15----15----|
A|--------------------------------------------------------------------|
D|--------------------------------------------------------------------|

e|------------------------------------|
B|-------13/15------------------------|
G|----10-------14-12-------9/10\9-----|
D|-12----------------15-14-x--x-x-8-7-|
A|-------------------------7/-8\7-8-7-|
D|--------------------------------8-7-|

e|--------------------------------------------------------------------|
B|-------13/15--------------------------------------------------------|
G|----10-------14-12-----------17----17----17----17----17----17----17-|
D|-12----------------15-14--15----15----15----15----15----15----15----|
A|--------------------------------------------------------------------|
D|--------------------------------------------------------------------|

e|------------------------------------|
B|-------13/15------------------------|
G|----10-------14-12-------9/10\9-----|
D|-12----------------15-14-x--x-x-8-7-|
A|-------------------------7/-8\7-8-7-|
D|--------------------------------8-7-|

e|--------------------------------------------------------------------|
B|-------13/15--------------------------------------------------------|
G|----10-------14-12-----------17----17----17----17----17----17----17-|
D|-12----------------15-14--15----15----15----15----15----15----15----|
A|--------------------------------------------------------------------|
D|--------------------------------------------------------------------|

e|------------------------------------|
B|-------13/15------------------------|
G|----10-------14-12-------9/10\9-----|
D|-12----------------15-14-x--x-x-8-7-|
A|-------------------------7/-8\7-8-7-|
D|--------------------------------8-7-|

e|--------------------------------------------------------------------|
B|-------13/15--------------------------------------------------------|
G|----10-------14-12-----------17----17----17----17----17----17----17-|
D|-12----------------15-14--15----15----15----15----15----15----15----|
A|--------------------------------------------------------------------|
D|--------------------------------------------------------------------|

e|-------------------------|
B|-------13/15-------------|
G|----10-------14-12-------|
D|-12----------------15-14-|
A|-------------------------|
D|-------------------------|

e|----------------------------------|
B|----------------------------------|
G|----------------------------------|
D|---12p0---12p0-10h12---12p0-------|
A|-0------0------------0------0-0-0-|
D|-0------0------------0------0-0-0-|
   .      .            .      . . .
e|---------------------------------------------------------------------|
B|---------------------------------------------------------------------|
G|---------------------------------------------------------------------|
D|---12p0-10h12-12p0-10h12---------12p0-10h12-----------12p0-10h12-----|(4x)
A|-0-----------------------0-0-0-0------------0-0-0-0-0------------0-0-|
D|-0-----------------------0-0-0-0------------0-0-0-0-0------------0-0-|
   .                       . . . .            . . . . .            . .
e|----|
B|----|
G|----|
D|-0~-|
A|-0~-|
D|-0~-|

e|----------------------------------------------------------------|
B|----------------------------------------------------------------|
G|----------------------------------------------------------------|
D|----------------------------------------------------------------|(2x)
A|-0--0-0-0-0-----3-3-3-3-3-3-3------8--8-8-8-8-----8-8-8-8-8-8-8-|
D|-0--0-0-0-0-----3-3-3-3-3-3-3------8--8-8-8-8-----8-8-8-8-8-8-8-|
   .  . . . .     . . . . . . .      .  . . . .     . . . . . . .
e|--------------------------------------------------------------------|
B|-------13/15--------------------------------------------------------|
G|----10-------14-12-----------17----17----17----17----17----17----17-|
D|-12----------------15-14--15----15----15----15----15----15----15----|
A|--------------------------------------------------------------------|
D|--------------------------------------------------------------------|

e|------------------------------------|
B|-------13/15------------------------|
G|----10-------14-12-------9/10\9-----|
D|-12----------------15-14-x--x-x-8-7-|
A|-------------------------7/-8\7-8-7-|
D|--------------------------------8-7-|

e|--------------------------------------------------------------------|
B|-------13/15--------------------------------------------------------|
G|----10-------14-12-----------17----17----17----17----17----17----17-|
D|-12----------------15-14--15----15----15----15----15----15----15----|
A|--------------------------------------------------------------------|
D|--------------------------------------------------------------------|

e|------------------------------------|
B|-------13/15------------------------|
G|----10-------14-12-------9/10\9-----|
D|-12----------------15-14-x--x-x-8-7-|
A|-------------------------7/-8\7-8-7-|
D|--------------------------------8-7-|

e|--------------------------------------------------------------------|
B|-------13/15--------------------------------------------------------|
G|----10-------14-12-----------17----17----17----17----17----17----17-|
D|-12----------------15-14--15----15----15----15----15----15----15----|
A|--------------------------------------------------------------------|
D|--------------------------------------------------------------------|

e|------------------------------------|
B|-------13/15------------------------|
G|----10-------14-12-------9/10\9-----|
D|-12----------------15-14-x--x-x-8-7-|
A|-------------------------7/-8\7-8-7-|
D|--------------------------------8-7-|

e|--------------------------------------------------------------------|
B|-------13/15--------------------------------------------------------|
G|----10-------14-12-----------17----17----17----17----17----17----17-|
D|-12----------------15-14--15----15----15----15----15----15----15----|
A|--------------------------------------------------------------------|
D|--------------------------------------------------------------------|

e|-----------------------------------------|
B|-------13/15-----------------------------|
G|----10-------14-12-------9/10\9----------|
D|-12----------------15-14-x--x-x-8-7------|
A|-------------------------7/-8\7-8-7------|
D|--------------------------------8-7--12/-|

e|------------------------------------------------------------------------------------|
B|------------------------------------------------------------------------------------|
G|------------------------------------------------------------------------------------|
D|------------------------------------------------------------------------------------|
A|-0--0-0-0-0--0-0-0-0--0--0-0-0-0-0-0-0--0-0-0-0-0--0-0-0-0--0--0-0-0-0-0-0-0--------|
D|-0--0-0-0-0--0-0-0-0--0--0-0-0-0-0-0-0--0-0-0-0-0--0-0-0-0--0--0-0-0-0-0-0-0-1p0-3b-|
   .  . . . .  . . . .  .  . . . . . . .  . . . . .  . . . .  .  . . . . . . .

e|------------------------------------------------------------------------|
B|------------------------------------------------------------------------|
G|------------------------------------------------------------------------|
D|------------------------------------------------------------------------|
A|-0--0-0-0-0------0-0-0-0--8-8-8-8-8-8-8-8---0-0-0-0-------0-0-0-0-0-0-0-|
D|-0--0-0-0-0------0-0-0-0--8-8-8-8-8-8-8-8---0-0-0-0-------0-0-0-0-0-0-0-|
   .  . . . .      . . . .  . . . . . . . .   . . . .       . . . . . . .
e|----------------------------|
B|----------------------------|
G|-3-----------3-----2--------|
D|-3--3--0~----3--3--2--1--0~-|(2x)
A|-1--3--0~----1--3--0--1--0~-|
D|----3--0~-------3-----1--0~-|

e|----------|
B|----------|
G|-3--------|
D|-3--3--0~-|
A|-1--3--0~-|
D|----3--0~-|

e|----------------------------------------------------------------|
B|----------------------------------------------------------------|
G|----------------------------------------------------------------|
D|----------------------------------------------------------------|(4x)
A|-0--0-0-0-0-----3-3-3-3-3-3-3------8--8-8-8-8-----8-8-8-8-8-8-8-|
D|-0--0-0-0-0-----3-3-3-3-3-3-3------8--8-8-8-8-----8-8-8-8-8-8-8-|
   .  . . . .     . . . . . . .      .  . . . .     . . . . . . .
e|----|
B|----|
G|----|
D|-0~-|
A|-0~-|
D|-0~-|

************************************

| /   slide up
| \   slide down
| h   hammer-on
| p   pull-off
| ~   vibrato
| +   harmonic
| x   Mute note
| b   Bend
| pb  Pre-bend
| br  Bend release
| pbr Pre-bend release
| brb Bend release bend

************************************
Tap to rate this tab
# A B C D E F G H I J K L M N O P Q R S T U V W X Y Z