Song name
# A B C D E F G H I J K L M N O P Q R S T U V W X Y Z

We Invented Paris - Silence tab

We Invented Paris  Silence

Tuning: Standard
Style: Fingerpicking


Intro / Verse 1:
|-----------------------------------------------------------------------|
|-5-----5---3----3---8-----8---7-3--5-----5---3-----3---8-----8---10-12-|
|---0-----0---0----0---0-----0--------0-----0---0-----0---0-----0-------|
|-----------------------------------------------------------------------|
|-3---3-----2---2----7---7-----5-2--3---3-----2---2-----7---7-----9--10-|
|-----------------------------------------------------------------------|

Standing here, watching this candle dying. In front of you all we need is silence


Chorus
|--------------------------------------------------------------------------------|
|-7-----7---7----7---5-----5---5-----5---8-----8---8-----8---7-----7---7-----7---|
|---0-----0---0----0---0-----0---0-----0---0-----0---0-----0---0-----0---0-----0-|
|--------------------------------------------------------------------------------|
|-5---5-----5---5----3---3-----3---3-----7---7-----7---7-----5---5-----5---5-----|
|--------------------------------------------------------------------------------|

Oh, You showed your face
Oh, You showed grace right here



Interlude / Verse 2:
|-----------------------------------------------------------------------|
|-5-----5---3----3---8-----8---7-3--5-----5---3-----3---8-----8---10-12-|
|---0-----0---0----0---0-----0--------0-----0---0-----0---0-----0-------|
|-----------------------------------------------------------------------|
|-3---3-----2---2----7---7-----5-2--3---3-----2---2-----7---7-----9--10-|
|-----------------------------------------------------------------------|

Standing here, watching this hour fading. In front of you all we need is silence.

Chorus
|--------------------------------------------------------------------------------|
|-7-----7---7----7---5-----5---5-----5---8-----8---8-----8---7-----7---7-----7---|
|---0-----0---0----0---0-----0---0-----0---0-----0---0-----0---0-----0---0-----0-|
|--------------------------------------------------------------------------------|
|-5---5-----5---5----3---3-----3---3-----7---7-----7---7-----5---5-----5---5-----|
|--------------------------------------------------------------------------------|

Oh, You showed your face
Oh, You showed grace
Oh, You showed your face
Oh, You showed grace




Bridge
|------------------------------------------------------------------|
|-8--7--3--5---8--7--3--1---8--10-12--13---8--7--3--5---8--7--3--5-|
|------------------------------------------------------------------|
|------------------------------------------------------------------|
|-7--5--2--3---7--5--2--0---7--9--10--12---7--5--2--3---7--5--2--3-|
|------------------------------------------------------------------|

Have your way, have your way, have your way, have your way, have your way, right here


Outro
|-----------------------------------------------------------------------|
|-5-----5---3----3---8-----8---7-3--5-----5---3-----3---8-----8---10-12-|
|---0-----0---0----0---0-----0--------0-----0---0-----0---0-----0-------|
|-----------------------------------------------------------------------|
|-3---3-----2---2----7---7-----5-2--3---3-----2---2-----7---7-----9--10-|
|-----------------------------------------------------------------------|

We Invented Paris
Official Website: http://www.weinventedparis.com/
Tap to rate this tab
 
# A B C D E F G H I J K L M N O P Q R S T U V W X Y Z