We Invented Paris - Silence tab

-------------------------------------------------------------------------------
                           Silence - We Invented Paris
-------------------------------------------------------------------------------
Tabbed by: Warcrash

Tuning: Standard

Intro:
e|------------------|------------------|------------------|--------------------|
B|-5-----5--3-----3-|-8-----8--7---3---|-5-----5--3-----3-|-8-----8--10---12---|
G|---0--------0-----|---0--------0---0-|---0--------0-----|---0---------0----0-|
D|------------------|------------------|------------------|--------------------|
A|-3---3----2---2---|-7---7----5---2---|-3---3----2---2---|-7---7----9----10---|
E|------------------|------------------|------------------|--------------------|

e|------------------|------------------|------------------|------------------|
B|-5-----5--3-----3-|-8-----8--7---3---|-5-----5--3-----3-|-8-----8--10---12-|
G|---0--------0-----|---0--------0---0-|---0--------0-----|---0---------0----|
D|------------------|------------------|------------------|------------------|
A|-3---3----2---2---|-7---7----5---2---|-3---3----2---2---|-7---7----9----10-|
E|------------------|------------------|------------------|------------------|


Verse:
e|------|------------------|------------|------------------|
B|-5--3-|-8-----8--7---3---|-5--3-----3-|-8-----8--10---12-|
G|------|---0--------0---0-|------0-----|---0---------0----|
D|------|------------------|------------|------------------|
A|-3--2-|-7---7----5---2---|-3--2---2---|-7---7----9----10-|
E|------|------------------|------------|------------------|
  Sitting here watching this candle dying. In front of you all we need is silence


Chorus:
e|------------------|-----------------|-----------------|------------------|
B|-7-----7--7-----7-|-5-----5--5----5-|-8-----8--8----8-|-7-----7--7-----7-|
G|---0--------0-----|---0-------------|---0-------------|---0--------0-----|
D|------------------|-----------------|-----------------|------------------|
A|-5---5----5---5---|-3---3----3--3---|-7---7----7--7---|-5---5----5---5---|
E|------------------|-----------------|-----------------|------------------|
  Ooooooooooooooooh!  Ooooouh!      You shooooooowed your face.
e|------------------|-----------------|-----------------|---|
B|-7-----7--7-----7-|-5-----5--5----5-|-8-----8--8----8-|-7-|
G|---0--------0-----|---0-------------|---0-------------|---|
D|------------------|-----------------|-----------------|---|
A|-5---5----5---5---|-3---3----3--3---|-7---7----7--7---|-5-|
E|------------------|-----------------|-----------------|---|
  Ooooooooooooooooh!  Ooooouh!      You shoooooooowed     grace.


Interlude: (same as first half of the intro)
e|------------------|------------------|------------------|--------------------|
B|-5-----5--3-----3-|-8-----8--7---3---|-5-----5--3-----3-|-8-----8--10---12---|
G|---0--------0-----|---0--------0---0-|---0--------0-----|---0---------0----0-|
D|------------------|------------------|------------------|--------------------|
A|-3---3----2---2---|-7---7----5---2---|-3---3----2---2---|-7---7----9----10---|
E|------------------|------------------|------------------|--------------------|
Right here!


Verse:
e|------|------------------|------------|------------------|
B|-5--3-|-8-----8--7---3---|-5--3-----3-|-8-----8--10---12-|
G|------|---0--------0---0-|------0-----|---0---------0----|
D|------|------------------|------------|------------------|
A|-3--2-|-7---7----5---2---|-3--2---2---|-7---7----9----10-|
E|------|------------------|------------|------------------|
  Standing here watching this hour fading. In front of you all we need is silence


Chorus:
e|------------------|-----------------|-----------------|------------------|
B|-7-----7--7-----7-|-5-----5--5----5-|-8-----8--8----8-|-7-----7--7-----7-|
G|---0--------0-----|---0-------------|---0-------------|---0--------0-----|
D|------------------|-----------------|-----------------|------------------|
A|-5---5----5---5---|-3---3----3--3---|-7---7----7--7---|-5---5----5---5---|
E|------------------|-----------------|-----------------|------------------|
  Ooooooooooooooooh!  Ooooouh!      You shooooooowed your face.
e|------------------|-----------------|-----------------|------------------|
B|-7-----7--7-----7-|-5-----5--5----5-|-8-----8--8----8-|-7-----7--7-----7-|
G|---0--------0-----|---0-------------|---0-------------|---0--------0-----|
D|------------------|-----------------|-----------------|------------------|
A|-5---5----5---5---|-3---3----3--3---|-7---7----7--7---|-5---5----5---5---|
E|------------------|-----------------|-----------------|------------------|
  Ooooooooooooooooh!  Ooooouh!      You shoooooooowed     grace.
e|------------------|-----------------|-----------------|------------------|
B|-7-----7--7-----7-|-5-----5--5----5-|-8-----8--8----8-|-7-----7--7-----7-|
G|---0--------0-----|---0-------------|---0-------------|---0--------0-----|
D|------------------|-----------------|-----------------|------------------|
A|-5---5----5---5---|-3---3----3--3---|-7---7----7--7---|-5---5----5---5---|
E|------------------|-----------------|-----------------|------------------|
  Ooooooooooooooooh!  Ooooouh!      You shooooooowed your face.
e|------------------|-----------------|-----------------|---|
B|-7-----7--7-----7-|-5-----5--5----5-|-8-----8--8----8-|-7-|
G|---0--------0-----|---0-------------|---0-------------|---|
D|------------------|-----------------|-----------------|---|
A|-5---5----5---5---|-3---3----3--3---|-7---7----7--7---|-5-|
E|------------------|-----------------|-----------------|---|
  Ooooooooooooooooh!  Ooooouh!      You shoooooooowed     grace.


Bridge:
e|--------|--------0-----|--------|--------0-----|--------|--------0-----|--------|--------0-----|
B|-8--7-3-|-5----5---5---|-8--7-3-|-1----1---1---|-8--7-3-|-5----5---5---|-8--7-3-|-1----1---1---|
G|--------|----0-------0-|--------|----0-------0-|--------|----0-------0-|--------|----0-------0-|
D|--------|--------------|--------|--------------|--------|--------------|--------|--------------|
A|-7--5-2-|-3------------|-7--5-2-|-0------------|-7--5-2-|-3------------|-7--5-2-|-0------------|
E|--------|--------------|--------|--------------|--------|--------------|--------|--------------|
                                                  Have your way!          Have your way!
e|----------|----------0------|--------|--------0-----|--------|---|
B|-8--10-12-|-13----13---13---|-8--7-3-|-1----1---1---|-8--7-3-|-5-|
G|----------|-----0---------0-|--------|----0-------0-|--------|---|
D|----------|-----------------|--------|--------------|--------|---|
A|-7--9--10-|-12--------------|-7--5-2-|-0------------|-7--5-2-|-3-|
E|----------|-----------------|--------|--------------|--------|---|
  Ha-ave your way!             Have your way!          Have your way!


Outro: (same as intro)
e|------------------|------------------|------------------|--------------------|
B|-5-----5--3-----3-|-8-----8--7---3---|-5-----5--3-----3-|-8-----8--10---12---|
G|---0--------0-----|---0--------0---0-|---0--------0-----|---0---------0----0-|
D|------------------|------------------|------------------|--------------------|
A|-3---3----2---2---|-7---7----5---2---|-3---3----2---2---|-7---7----9----10---|
E|------------------|------------------|------------------|--------------------|
Right Now!
e|------------------|------------------|------------------|------------------|
B|-5-----5--3-----3-|-8-----8--7---3---|-5-----5--3-----3-|-8-----8--10---12-|
G|---0--------0-----|---0--------0---0-|---0--------0-----|---0---------0----|
D|------------------|------------------|------------------|------------------|
A|-3---3----2---2---|-7---7----5---2---|-3---3----2---2---|-7---7----9----10-|
E|------------------|------------------|------------------|------------------|
Tap to rate this tab
 
# A B C D E F G H I J K L M N O P Q R S T U V W X Y Z