Song name
# A B C D E F G H I J K L M N O P Q R S T U V W X Y Z

We Shot The Moon - Sway Your Head tab

Sway Your Head
We Shot the Moon

Tabbed by: JP143
Email:jp143@gmail.com

Tuning: standard


INTRO: Piano

Verse
e|---------------------------------------------------------------------------|
B|---------------------------------------------------------------------------|
G|---5-5-5-5---5-5-5-5--5-5-5-5---------------------------------------------
D|--3-3-2-2---3-3-2-2--3-3-2-2----------------------------------------------
A|---------------------------------------------------------------------------|
E|---------------------------------------------------------------------------|


Pre-chorus (your alive, so alive)
e|---------------------------------------------------------------------------|
B|---------------------------------------------------------------------------|
G|--------------------------------------------------------------------------
D|---7-7-7-5------7-7-7-5----7-7-7-5-10-------------------------------------
A|---7-7-7-5------7-7-7-5----7-7-7-5-10-------------------------------------
E|---5-5-5-3------5-5-5-3----5-5-5-3-8---------------------------------------


CHORUS (You gotta pull yourself back together...)
e|---------------------------------------------------------------------------|
B|---------------------------------------------------------------------------|
G|--10-------9--------10-------12-----7-------------------------------------
D|--10-------9--------10-------12-----7------   7-7---5-5--------------------
A|--8--x8----7--(x8)---8--(x4)---10 (x2)--5-(x4)--- 7-7---5-5-------------------
E|--------------------------------------------  5-5---3-3---------------------


BRIDGE (i think its coming back to me, oooh,oooh, )
e|---------------------------------------------------------------------------|
B|---------------------------------------------------------------------------|
G|---------------------------------------------------------------------------|
D|--7x--------9x--------10x-------12x---------------------------------------
A|--7x--------9x--------10x-------12x---------------------------------------
E|--5x--x4----7x--(x4)---8x--(x4)-10x x(4)------------------------------------




BRIDGE END RIFF
e|--12--10------10--12-------------------------------------------------------
B|----------13-----------13--------------------------------------------------
G|---------------------------------------------------------------------------|
D|---------------------------------------------------------------------------|
A|---------------------------------------------------------------------------|
E|---------------------------------------------------------------------------|

END ON
e|---------------------------------------------------------
B|----------------------------------------------------------
G|---------------------------------------------------------------------------|
D|---3----------------------------------------------------------------------
A|---3----------------------------------------------------------------------
E|---1-----------------------------------------------------------------------



| /  slide up
| \  slide down
| h  hammer-on
| p  pull-off
| ~  vibrato
| +  harmonic
| x  Mute note
===============================================================================
Tap to rate this tab
# A B C D E F G H I J K L M N O P Q R S T U V W X Y Z