Song name
# A B C D E F G H I J K L M N O P Q R S T U V W X Y Z

We Shot The Moon - Hope tab

Capo 3. All tabs/chords relative to capo.

(Intro/Verse)

E --0---0---0---0---|--0---0---0---0---|--0---0---0---0---|--0---0---0---0---|
B --1---1---1---1h3-|--0---0---0---0---|--1---1---1---1h3-|--0---0---0---0---|
D --0---0---0---0---|--0---0---0---0---|--0---0---0---0---|--0---0---0---0---|
G --2---2---2---2---|--2---2---2---2---|--2---2---2---2---|--2---2---2---2---|
A ------------------|------------------|------------------|------------------|
E ------------------|------------------|------------------|------------------|


E --0---0---0---0---|--0---0---0---0---|--0---0---0---0---|--0---0---0---0---|
B --1---1---1---1h3-|--0---0---0---0---|--1---1---1---1h3-|--0---0---0---0---|
D --2---2---2---2---|--2---2---2---2---|--2---2---2---2---|--2---2---2---2---|
G --2---2---2---2---|--2---2---2---2---|--2---2---2---2---|--2---2---2---2---|
A ------------------|------------------|------------------|------------------|
E ------------------|------------------|------------------|------------------|


C
Hope it's all the I have
                Am
The calm in the storm

Is right where I am
          C
Inside of hope

It's all that I know
                    Am
It's what I'm moved for

It's what I live for

C    F       C    G
Wave goodbye to a time
         C       F         C    G
That you once believed was everything

(chorus)
             C
I'm ready to live
             Am
I'm ready to dream
              F
I'm ready for fear, and love 
               G
and everything between

                  C
Don't tell me I'm right
                  Am
Don't tell me I'm wrong
                 F
Just tell me I'm strong enough 
             G
for one more song
                      Am            E
And this could be the one to say it right
         Am              Dm
Bringing warmth into the night
              F                   G
I'm going for broke, but I've got hope

(end chorus)

    C
The sound it's all around
              Am
And we can be found

All in good time.
C
I'm forgiving yesterday
                                Am
Wishing yesterday would forgive me
               F
but I'll never see

   C    F       C    G
So wave goodbye to a time
         C       F         C    G
That you once believed was everything

(chorus)
             C
I'm ready to live
             Am
I'm ready to dream
              F
I'm ready for fear, and love 
               G
and everything between

                  C
Don't tell me I'm right
                  Am
Don't tell me I'm wrong
                 F
Just tell me I'm strong enough 
             G
for one more song
                      Am            E
And this could be the one to say it right
         Am              Dm
Bringing warmth into the night
              F                   G
I'm going for broke, but I've got hope

(end chorus)

C                             F
I'm ready to live, I live for hope.
C                             G        C
I'm ready to live, I live for hope.

(chorus)
             C
I'm ready to live
             Am
I'm ready to dream
              F
I'm ready for fear, and love 
               G
and everything between

                  C
Don't tell me I'm right
                  Am
Don't tell me I'm wrong
                 F
Just tell me I'm strong enough 
             G
for one more song
                      Am            E
And this could be the one to say it right
         Am              Dm
Bringing warmth into the night
              F                   G
I'm going for broke, but I've got hope

(end chorus)
               C
Yeah, I've got hope
Tap to rate this tab
# A B C D E F G H I J K L M N O P Q R S T U V W X Y Z