Song name
# A B C D E F G H I J K L M N O P Q R S T U V W X Y Z

We The Kings - Skyway Avenue Live Acoustic tab

----------------------------------------
ARTIST: We The Kings
SONG: Skyway Avenue (Live Acoustic)

Tuning: CGCFAd
Notes: I have tabbed parts of it, I will soon finish it in a couple of days. Nobody has 
the acoustic version, so I am tabbing it. Everything I have tabbed so far is 100% correct.

Tab by: Marc Ojales
Email: xitsmako@yahoo.com
----------------------------------------

=== GUITAR 1 ===

d|-------10--10-----10---10-10-10-10-10-10----------------------|
A|-------8---8------8----8--8--7--7--7--7-----------------------|
F|-------0---0------0----0--0--0--0--0--0-----------------------|
C|---0-0---0----0-0----0----------------------------------------|
G|---8-8---8----8-8----8----------------------------------------|
C|--------------------------------------------------------------|

d|-------10--10-----10---10-10-10-10-10-10----------------------|
A|-------8---8------8----8--8--7--7--7--7-----------------------|
F|-------0---0------0----0--0--0--0--0--0-----------------------|
C|---0-0---0----0-0----0----------------------------------------|
G|---8-8---8----8-8----8----------------------------------------|
C|--------------------------------------------------------------|

d|---0---0----0--0--0--0----0---0----0--0--0--0-----------------|
A|---0---0----0--0--0--0----0---0----0--0--0--0-----------------|
F|--------------------------------------------------------------|
C|---10--10---10-10-10-10---10--10---10-10-10-10----------------|
G|---10--10---10-10-10-10---10--10---10-10-10-10----------------|
C|---10--10---10-10-10-10---10--10---10-10-10-10----------------|

d|--------------------------------------------------------------|
A|--------------------------------------------------------------|
F|--------------------------------------------------------------|
C|---5--5---5-5-5-0---0-0-0-0-0-0-0-----------------------------|
G|---5--5---5-5-5-0---0-0-0-0-0-0-0-----------------------------|
C|---5--5---5-5-5-0---0-0-0-0-0-0-0-----------------------------|

d|---0--0---0-0-0-0---0--0---0-0-0-0----------------------------|
A|---0--0---0-0-0-0---0--0---0-0-0-0----------------------------|
F|---5--5---5-5-5-5---5--5---5-5-5-5----------------------------|
C|---5--5---5-5-5-5---5--5---5-5-5-5----------------------------|
G|---3--3---3-3-3-3---3--3---3-3-3-3----------------------------|
C|--------------------------------------------------------------|

d|--------------------------------------------------------------|
A|--------------------------------------------------------------|
F|--------------------------------------------------------------|
C|---5--5---5-5-5-0---0-0-0-0-0-0-0-----------------------------|
G|---5--5---5-5-5-0---0-0-0-0-0-0-0-----------------------------|
C|---5--5---5-5-5-0---0-0-0-0-0-0-0-----------------------------|

=== GUITAR 2 ===

d|--------------------------------------------------------------|
A|--------------------------------------------------------------|
F|--------------------------------------------------------------|
C|--------------------------------------------------------------|
G|--------------------------------------------------------------|
C|--------------------------------------------------------------|

d|--------------------------------------------------------------|
A|----------------15---------------------------15---------------|
F|---12h14p12-12----12-11-12-12h14p12-12---------12-11----------|
C|--------------12-----------------------12-12------------------|
G|--------------------------------------------------------------|
C|--------------------------------------------------------------|

d|-  NOTE: This is the correct chords in the right order, but  -
A|-        figure out the pattern, it's really easy.           -
F|--------------------------------------------------------------|
C|---7-7-7---7-----7-7-7-7---7-7-7----7--7----7---7-7-7-7--7-7--|
G|---3-3-3---3-----3-3-3-3---3-3-3----5--5----5---5-5-5-5--5-5--|
C|------------------------------------5--5----5---5-5-5-5-------|
     . .            . .               .  .

( . = palm mute )
Tap to rate this tab
# A B C D E F G H I J K L M N O P Q R S T U V W X Y Z