Song name
# A B C D E F G H I J K L M N O P Q R S T U V W X Y Z

We The Kings - Make It Or Not tab

Song: Make It Or Not
Artist: We The Kings
Album: Secret Valentine EP

drop d

Piano:

e|------------------------------------------|
B|---Piano is played throughout whole-------|
G|---song-----------------------------------|
D|------------------------------------------|
A|------------------------------------------|
D|------------------------------------------|


Pre-Chorus:

e|------------------------------------------|
B|------------------------------------------|
G|---6-----------6--------------------------|
D|---6-----6-----6-----4--------------------|
A|---4-----6-----4-----4--------------------|
D|---------6-----------4--------------------|

  ..........................................
                (Palm Mute)

Chorus:

e|------------------------------------------|
B|------------------------------------------|
G|---------6--------------------------------|
D|---8-----6-----4-----6--------------------|
A|---8-----4-----4-----6--------------------|
D|---8-----------4-----6--------------------|


Bridge:

e|------------------------------------------|
B|------------------------------------------|
G|------------------------------------------|
D|---6-----4-----8-----6----4-----6---------|
A|---6-----4-----8-----6----4-----6---------|
D|---6-----4-----8-----6----4-----6---------|

(just figure out the rhythm)(just listen to it before playing with it)


Theres the tab for Make It Or Not by We The Kings!!

Buy their new album, Secret Valentine EP!!
Tap to rate this tab
# A B C D E F G H I J K L M N O P Q R S T U V W X Y Z