Guitaretab - guitar tabs
Song name
# A B C D E F G H I J K L M N O P Q R S T U V W X Y Z

We The Kings - This Is Our Town Acoustic tab

------------------------------------------------------------------------------
	     This is our town acoustic - We the kings
------------------------------------------------------------------------------
Tabbed by: rockerkyle13
Email: rockerkyle13@yahoo.com

Tuning: drop d or drop c, travis said in one of his videos that he was in drop D, 
and my guitar was apperantly tuned to drop C and sounded just like it. but other 
than that, I worked very hard on it and I hope you guys like it, enjoy!

e|--------0---------------0---------------0---------------0-------|\
B|----------------------------------------------------------------| \
G|-2-2-2--2-2-2--2-2-2--2-2-2-1-2-1-2-1-2--1-2-1-2-1-2-|  \
D|0---------------0---------------2---------------2---------------|   \ 
A|----------------------------------------------------------------|    \
D|----------------------------------------------------------------|     \
                                                                        X2
e|--------0---------------0---------------0---------------0-------|     /
B|----------------------------------2--2--2--2--2--2--2--2-|    /
G|-2-2-2--2-2-2--2-2-2--2-2-2-2--2-------2--2--2-------2---|   /
D|4---------------4-----------------------------------------------|  /
A|----------------------------------------------------------------| /
D|----------------------------------------------------------------|/

e|--------0---------------0-------0-------------------0-----|
B|--------------------------------0-------------------------|
G|-2-2-2--2-2-2--2-2-2--2-2-2-1---------------------2-1-|
D|0---------------0---------------2-------------------------|
A|----------------------------------------------------------|
D|----------------------------------------------------------|
       
e|--------0---------------0---------------0---------------0-------|
B|----------------------------------------------------------------|     
G|-2-2-2--2-2-2--2-2-2--2-2-2-1-2-1-2-1-2--1-2-1-2-1-2-|     
D|0---------------0---------------2---------------2---------------|        
A|----------------------------------------------------------------|        
D|----------------------------------------------------------------|        

e|--------0---------------0---------------0-------0-----------0-0-|
B|------------------------------------------------0-----------0-0-|     
G|-2-2-2--2-2-2--2-2-2--2-2-2-1-2-1-2-1-21--------1-1-|     
D|0---------------0---------------2---------------2-----------2-2-|        
A|----------------------------------------------------------------|        
D|----------------------------------------------------------------|        
[ Tab from: http://www.guitaretab.com/w/we-the-kings/190725.html ]
e|---------------------------------------------------------|\
B|---------------------------------------------------------| \
G|---------------------------------------------------------|  \
D|00000-0000-002-2222-2222-224-4444-4444-447-7777-7777-77-|   \
A|0-0000-0000-002-2222-2222-224-4444-4444-447-7777-7777-77-|    \
D|0-0000-0000-002-2222-2222-224-4444-4444-447-7777-7777-77-|     \
                   Guitar 2 (not sure about this part)(above)    X2
e|0-0000-0000-000-0000-0000-00000000000-000-0000-0000-00-      /
B|2-2222-2222-220-0000-0000-000-0000-0000-002-2222-2222-22-|    /
G|2-2222-2222-221-1111-1111-112-2222-2222-222-2222-2222-22-|   /
D|0-0000-0000-002-2222-2222-224-4444-4444440-xxxx-xxxx-xx-|  /
A|x-xxxx-xxx--xx------------------------------0000-000000-| /
D|---------------------------------------------------------|/
                   Guitar 1 (not sure about this part)(above)
e|--------0---------------0---------------0---------------0-------|
B|----------------------------------------------------------------|     
G|-2-2-2--2-2-2--2-2-2--2-2-2-1-2-1-2-1-2--1-2-1-2-1-2-|      
D|0---------------0---------------2---------------2---------------|        
A|----------------------------------------------------------------|        
D|----------------------------------------------------------------|         
                                                                            
e|--------0---------------0---------------0---------------0-------|        
B|----------------------------------2--2--2--2--2--2--2--2-|        
G|-2-2-2--2-2-2--2-2-2--2-2-2-2--2-------2--2--2-------2---|       
D|4---------------4-----------------------------------------------|      
A|----------------------------------------------------------------|     
D|----------------------------------------------------------------|

e|--------0---------------0-------0-------------------------|
B|--------------------------------0-------------------------|
G|-2-2-2--2-2-2--2-2-2--2-2-2-1-------------------------|
D|0---------------0---------------2-------------------------|
A|----------------------------------------------------------|
D|----------------------------------------------------------|
 
e|-----------------------------------------------------------------|
B|-----------------------------------------------------------------|
G|-----------------------------------------------------------------|
D|0000000000000000222222222222222244444444444444447777777777777777-|
A|0000000000000000222222222222222244444444444444447777777777777777-|
D|0000000000000000222222222222222244444444444444447777777777777777-|
                   Guitar 2 (not sure about this part)(above)
e|00000000000000000000000000000000000000000000000000000000000000- 
B|22222222222222220000000000000000000000000000002222222222222222-|
G|22222222222222221111111111111111222222222222222222222222222222-|
D|000000000000000022222222222222224444444444444444xxxxxxxxxxxxxx-|
A|0000000000000000--------------------------------00000000000000-|
D|---------------------------------------------------------|
                   Guitar 1 (not sure about this part)(above)
e|--------0---------------0---------------0---------------0-------|
B|----------------------------------------------------------------|     
G|-2-2-2--2-2-2--2-2-2--2-2-2-1-2-1-2-1-2--1-2-1-2-1-2-|      
D|0---------------0---------------2---------------2---------------|        
A|----------------------------------------------------------------|        
D|----------------------------------------------------------------|         
                                                                            
e|--------0---------------0---------------0---------------0-------|        
B|----------------------------------2--2--2--2--2--2--2--2-|        
G|-2-2-2--2-2-2--2-2-2--2-2-2-2--2-------2--2--2-------2---|       
D|4---------------4-----------------------------------------------|      
A|----------------------------------------------------------------|     
D|----------------------------------------------------------------|

e|--------0---------------0-------0-------------------------|
B|--------------------------------0-------------------------|
G|-2-2-2--2-2-2--2-2-2--2-2-2-1-------------------------|
D|0---------------0---------------2-------------------------|
A|----------------------------------------------------------|
D|----------------------------------------------------------|
 


Related for This Is Our Town Acoustic tab