Song name
# A B C D E F G H I J K L M N O P Q R S T U V W X Y Z

We The Kings - Summer Love tab

This is my first tab and I'm sure this is about 90% correct. If you find something 
wrong comment or email me at moy_rockstar@hotmail.com

Standard Tuning 
EADGBe

Synth intro, guitar comes in at 0:07

Listen to song for timing

Intro/Verse
e|------------------------------------|
B|------------------------------------|
G|-6--------10--------6-------5-------|
D|-x(x32)---x-(x32)---x(x32)--x(x32)--|
A|-4--------8---------4-------3-------|
E|------------------------------------|

Pre-Chorus
e|------------------------------|
B|------------------------------|
G|--6-x-x-6-x-x-6-x-6-6--6-x-x-6|
D|--x-x-x-x-x-x-x-x-x-x--x-x-x-x|
A|--4-x-x-4-x-x-4-x-4-4--4-x-x-4|
E|------------------------------|

e|----x--x--x--x----|
B|----x--x--x--x----|
G|----x--x--x--x----|
D|----x--x--x--x----|
A|----x--x--x--x----|
E|----x--x--x--x----|

Chorus
e|--------------------------------|
B|--------------------------------|
G|--6-----------------------------|
D|--6(x16)--4-------8------6------|   x3
A|--4-------4(x16)--8(x8)--6(x8)--|
E|----------2-------6------4------|

On 3rd time through hit the G# only once.

Verse
Pre-Chorus
Chorus

The second time through the chorus, skip the last chord and go to bridge.

Bridge
e|------------------------|
B|------------------------|
G|--6~--------------------|
D|--6~----4~----8~--6~----|
A|--4~----4~----8~--6~----|
E|--------2~----6~--4~----|

Pre-Chorus 2
e|------------------------------|
B|------------------------------|
G|--6-x-x-6-x-x-6-x-6-6--6-x-x-6|
D|--x-x-x-x-x-x-x-x-x-x--x-x-x-x|   x2
A|--4-x-x-4-x-x-4-x-4-4--4-x-x-4|
E|------------------------------|

e|----x--x--x--x----|
B|----x--x--x--x----|
G|----x--x--x--x----|
D|----x--x--x--x----|
A|----x--x--x--x----|
E|----x--x--x--x----|

Chorus x4

End on
e|----------|
B|----------|
G|----6~----|
D|----6~----|
A|----4~----|
E|----------|

That's pretty much it, the only tricky part is the Pre-Chorus timing other than 
that it's a super easy song.

Enjoy!
Tap to rate this tab
# A B C D E F G H I J K L M N O P Q R S T U V W X Y Z