Song name
# A B C D E F G H I J K L M N O P Q R S T U V W X Y Z

We The Kings - The Story Of Your Life tab

e|-------------------------------------------------------------------------------|
B|-------------------------------------------------------------------------------|
G|-----1-1-1-1--1-1-1-1--1-1-1-1--2-2--1-1---------------------------------------|
D|-------------------------------------------4-4-4-4--4-4-4-4--4-4-4-4--6-6--4-4-|
A|-------------------------------------------------------------------------------|
E|-------------------------------------------------------------------------------|

e|-------------------------------------------------------------------------------|
B|-------------------------------------------------------------------------------|
G|-------------------------------------------------------------------------------|
D|-----2-2-2-2--2-2-2-2--2-2-2-2--2-2-2-2--2-2-2-2--2-2-2-2--2-2-2-2--2----------|
A|-------------------------------------------------------------------------------|
E|-------------------------------------------------------------------------------|

e|-------------------------------------------------------------------------------|
B|-------------------------------------------------------------------------------|
G|------9-9-9-9-9-9-9-9-9-9-9-9-9-9-9-9--4-4-4-4-4-4-4-4-4-4-4-4-4-4-4-4---------|
D|------9-9-9-9-9-9-9-9-9-9-9-9-9-9-9-9--4-4-4-4-4-4-4-4-4-4-4-4-4-4-4-4---------|
A|------7-7-7-7-7-7-7-7-7-7-7-7-7-7-7-7--2-2-2-2-2-2-2-2-2-2-2-2-2-2-2-2---------|
E|-------------------------------------------------------------------------------|

e|-------------------------------------------------------------------------------|
B|-------------------------------------------------------------------------------|
G|------6-6-6-6-6-6-6-6-6-6-6-6-6-6-6-6------------------------------------------|
D|------6-6-6-6-6-6-6-6-6-6-6-6-6-6-6-6--7-7-7-7-7-7-7-7-7-7-7-7-7-7-7-7---------|
A|------4-4-4-4-4-4-4-4-4-4-4-4-4-4-4-4--7-7-7-7-7-7-7-7-7-7-7-7-7-7-7-7---------|
E|---------------------------------------5-5-5-5-5-5-5-5-5-5-5-5-5-5-5-5---------|

e|-------------------------------------------------------------------------------|
B|-------------------------------------------------------------------------------|
G|-------------------------------------------------------------------------------|
D|------4-\-----7-7-7-7---2-2---9--9-9-9---4-\----7-7-7-7--9-9-9-9--9-9-9-9--9---|
A|------4-\-----7-7-7-7---2-2---9--9-9-9---4-\----7-7-7-7--9-9-9-9--9-9-9-9--9---|
E|------2-\-0---5-5-5-5---0-0---7--7-7-7---2-\-0--5-5-5-5--7-7-7-7--7-7-7-7--7---|

e|-------------------------------------------------------------------------------|
B|-------------------------------------------------------------------------------|
G|-----------------------4-4-4-4-4-4-4-4--6-6-6-6-6-6-6-6------------------------|
D|------2-2-2-2-2-2-2-2--4-4-4-4-4-4-4-4--6-6-6-6-6-6-6-6--7-7-7-7-7-7-7-7-------|
A|------2-2-2-2-2-2-2-2--2-2-2-2-2-2-2-2--4-4-4-4-4-4-4-4--7-7-7-7-7-7-7-7-------|
E|------0-0-0-0-0-0-0-0------------------------------------5-5-5-5-5-5-5-5-------|
Tap to rate this tab
# A B C D E F G H I J K L M N O P Q R S T U V W X Y Z