Song name
# A B C D E F G H I J K L M N O P Q R S T U V W X Y Z

We The Kings - Anna Maria All We Need tab

Anna Maria (All We Need)
by we the kings
rayaj2894@yahoo.com add nio sa fb

e[----0--6--]\
b[--3--3----] \
g[----------]  \
d[----------]  / 4x
a[----------] /
e[----------]/


e[--2-0--2-0--2-0--------]  
b[-3----3----3------323--] 
g[-----------------------]  
d[-----------------------]  
a[-----------------------]  
e[-----------------------]  

e[--2-0--2-0--2-0---320--]  
b[-3----3----3-----------] 
g[-----------------------]  
d[-----------------------]  
a[-----------------------]  
e[-----------------------]

e[--2-0--2-0--2-0------------]  
b[-3----3----3------323--3-15] 
g[---------------------------]  
d[---------------------------]  
a[---------------------------]  
e[---------------------------]

trip q lang 2 d aq sure kung tma e2 pero mga 98% cguro 2
Tap to rate this tab
# A B C D E F G H I J K L M N O P Q R S T U V W X Y Z