Song name
# A B C D E F G H I J K L M N O P Q R S T U V W X Y Z

We The Kings - Summer Love tab

Summer Love tab by We The Kings
Tabbed by: hero904 (adan)
The tuning is regular.
I love We The Kings. I saw em live about a year ago, and love there new album. (Smile 
check it out) Um, this is a easy song u can even sing along cuz the strumming iz pretty 
Have a blast with this song.

Intro/Verse:
e|-----------------------------------|
B|-----------------------------------|
G|-5--------9--------7-------4-------|
D|-x(x32)---x-(x32)--x(x32)--x(x32)--|
A|-3--------7--------5-------2-------|
E|-----------------------------------|

Pre-Chorus
e|------------------------------|
B|------------------------------|
G|--5-x-x-5-x-x-5-x-5-5--5-x-x-5|
D|--x-x-x-x-x-x-x-x-x-x--x-x-x-x|
A|--3-x-x-3-x-x-3-x-3-3--3-x-x-3|
E|------------------------------|

Chorus
e|--------------------------------|
B|--------------------------------|
G|--5-----------------------------|
D|--5(x16)--3-------7------5------|   x3
A|--3-------3(x16)--7(x8)--5(x8)--|
E|----------1-------5------3------|

Verse
Pre-Chorus
Chorus
Bridge
Bridge: Each time you strum let it ring.
e|-------------|
B|-------------|
G|--5----------|
D|--5--3--5----|
A|--3--3--5----|
E|-----1--3----|

Pre-Chorus 2x

Chorus x4
Last Strum and let it ring.
e|----------|
B|----------|
G|----6~----|
D|----6~----|
A|----4~----|
E|----------|

If you want to sing along here are the lyrics.

Last night I came across a girl
We met __ ,for the first time
I finally felt alive
I could not move my bones
I'm falling into what I know
I wont ever let go

Can you feel the love that summer
Time we're in love then it feels right
Oh now I, I cant wait for the summer
Time stops as we move closer
The sun drops into the water
Now I, I'm falling into summer love

Aoh Aoh, 2x

Tonight, we are intertwined
And we are laying side by side
So dont you try
To fight, those feelings that you hide
Telling you It's okay girl
Or you will never know

Can you feel the love that summer
Time we're in love then it feels right
Oh now I, I cant wait for the summer
Time stops as we move closer
The sun drops into the water
Now I, I'm falling into summer love

Summer love
We're in love tonight

Can you feel the love that summer
Time we're in love then it feels right
Oh now I, I cant wait for the summer
Time stops as we move closer
The sun drops into the water
Now I, I'm falling into summer love
Tap to rate this tab
# A B C D E F G H I J K L M N O P Q R S T U V W X Y Z