Song name
# A B C D E F G H I J K L M N O P Q R S T U V W X Y Z

We The Kings - Skyway Avenue Live Acoustic tab

This is played in drop C. The tab is based off the 100 videos posted on youtube of
the two playing at stores, after shows, etc. Damn close to 100% correct. Timings
yours to figure out for the most part.

DOES NOT INCLUDE LEAD LICK
*- Palm Mute

INTRO
d----------10----10-----10---10-----10101010-|
A----------8-----8------8----8------7-7-7-7--|
F----------0-----0------0----0------0-0-0-0--|
C--------------------------------------------|
G------9-9----9-----9-9----9----9-9----------|
C--------------------------------------------|
       * *    *     * *    *    * *

Bridge
d------0---------x---x----|
A------0---------x---x----|
F------x---------7---7----|           x2
C------10--------7---7----|
G------10--------5---0----|
C------10--------5---0----|

Verse
d----------------------------------------------------|
A----------------------------------------------3---3-|
F----------0---0-----0---0---0-0-0-0-------4-4-4-4-4-|
C------2-2-2-2-2-2-2-2-2-2-2-2-2-2-2-------5-5-5-5-5-|
G------3-3-3-3-3-3-3-3-3-3-3-3-3-3-3-----------------|
C----------------------------------------------------|
       * *   *   * *   *   *               * *   *
Verse Continued
d------------------------------------|
A------------------------------------|
F----------0---0-----0---0---0-0-0-0-|
C------4-4-4-4-4-4-4-4-4-4-4-4-4-4-4-|
G------5-5-5-5-5-5-5-5-5-5-5-5-5-5-5-|
C------------------------------------|
       * *   *   * *   *   *


Bridge
d------0---------x---0----|
A------0---------x---0----|
F------x---------7---7----|           x2
C------10--------7---7----|
G------10--------5---0----|
C------10--------5---0----|

Chorus
d------x---0---x---0---|--0--0--0-|
A------x---0---x---0---|--1--0--0-|
F------7---7---x---5-x3|--2--5--7-|
C------7---7---2---5---|--2--5--7-|
G------5---0---2---3---|--0--3--5-|
C------5---0---2---x---|--x--x--x-|

Verse
d----------------------------------------------------|
A----------------------------------------------3---3-|
F----------0---0-----0---0---0-0-0-0-------4-4-4-4-4-|
C------2-2-2-2-2-2-2-2-2-2-2-2-2-2-2-------5-5-5-5-5-|
G------3-3-3-3-3-3-3-3-3-3-3-3-3-3-3-----------------|
C----------------------------------------------------|
       * *   *   * *   *   *               * *   *
Verse Continued
d------------------------------------|
A------------------------------------|
F----------0---0-----0---0---0-0-0-0-|
C------4-4-4-4-4-4-4-4-4-4-4-4-4-4-4-|
G------5-5-5-5-5-5-5-5-5-5-5-5-5-5-5-|
C------------------------------------|
       * *   *   * *   *   *

Bridge
d------0---------x---0----|
A------0---------x---0----|
F------x---------7---7----|           x2
C------10--------7---7----|
G------10--------5---0----|
C------10--------5---0----|

Chorus
d------x---0---x---0---|--0--0--0-|
A------x---0---x---0---|--1--0--0-|
F------7---7---x---5-x3|--2--5--7-|
C------7---7---2---5---|--2--5--7-|
G------5---0---2---3---|--0--3--5-|
C------5---0---2---x---|--x--x--x-|

Bridge
d------0----x-----x---0----|
A------0----x-----x---0----|
F------x----x-----7---7----|           x2
C------10---2-----7---7----|
G------10---2-----5---0----|
C------10---2-----5---0----|

Chorus
d------x---0---x---0---|--0--0--0-|
A------x---0---x---0---|--1--0--0-|
F------7---7---x---5-x3|--2--5--7-|
C------7---7---2---5---|--2--5--7-|
G------5---0---2---3---|--0--3--5-|
C------5---0---2---x---|--x--x--x-|

If you dont like it. think its crap. hate me for getting even the slightest
thing wrong. suckadik. good luck finding another tab for this particular version.
if its helped you awesome. add it to your collection of panty droppers.
Tap to rate this tab
 
# A B C D E F G H I J K L M N O P Q R S T U V W X Y Z