Song name
# A B C D E F G H I J K L M N O P Q R S T U V W X Y Z

We The Kings - Well Be A Dream tab

-------------------------------------------------------------------------------
			     We'll be a dream - We the kings ft demi lovato
-------------------------------------------------------------------------------
Tabbed by:justin.l


Tuning: stanard

  INTRO/VERSE:
   A 
e|-------------------------------------------------------------------------|
B|------5-------5-------5-------5------------------------------------------|
G|--6-------6-------6-------6----------------------------------------------|
D|----7---7---7---7---7---7---7---7----------------------------------------|
A|-------------------------------------------------------------------------|
E|-------------------------------------------------------------------------|
   D
e|-------------------------------------------------------------------------|
B|------5------5-------5-------5-------------------------------------------|
G|--7-------7------7-------7-----------------------------------------------|
D|----7---7---7--7---7---7---7---7-----------------------------------------|
A|-------------------------------------------------------------------------|
E|-------------------------------------------------------------------------|
   A
e|-------------------------------------------------------------------------|
B|------5-------5-------5-------5------------------------------------------|
G|--6-------6-------6-------6----------------------------------------------|
D|----7---7---7---7---7---7---7---7----------------------------------------|
A|-------------------------------------------------------------------------|
E|-------------------------------------------------------------------------|
   E
e|-------------------------------------------------------------------------|
B|------5-------5-------5-------5------------------------------------------|
G|--4-------4-------4-------4----------------------------------------------|
D|----6---6---6---6---6---6---6---6----------------------------------------|
A|-------------------------------------------------------------------------|
E|-------------------------------------------------------------------------|
   CHOURUS:
    D                A
e|--x----------------5-----------------------------------------------------|
B|--7----------------5-----------------------------------------------------|
G|--7----------------6-----------------------------------------------------|
D|--7----------------7-----------------------------------------------------|
A|--5----------------7-----------------------------------------------------|
E|--x----------------5-----------------------------------------------------|
    
    D                A
e|-------------------------------------------------------------------------|
B|-------------------------------------------------------------------------|
G|-------------------------------------------------------------------------|
D|-------------------------------------------------------------------------|
A|-------------------------------------------------------------------------|
E|-------------------------------------------------------------------------|
    D       E        F dimished  F#m
e|----------0--------1-----------2-----------------------------------------|
B|----------0--------1-----------2-----------------------------------------|
G|----------1--------1-----------2-----------------------------------------|
D|----------2--------3-----------4-----------------------------------------|
A|----------2--------4-----------4-----------------------------------------|
E|----------0--------1-----------2-----------------------------------------|
    D                E
e|-------------------------------------------------------------------------|
B|-------------------------------------------------------------------------|
G|-------------------------------------------------------------------------|
D|-------------------------------------------------------------------------|
A|-------------------------------------------------------------------------|
E|-------------------------------------------------------------------------|

Then the VERSE part agian

   A 
e|-------------------------------------------------------------------------|
B|------5-------5-------5-------5------------------------------------------|
G|--6-------6-------6-------6----------------------------------------------|
D|----7---7---7---7---7---7---7---7----------------------------------------|
A|-------------------------------------------------------------------------|
E|-------------------------------------------------------------------------|
   D
e|-------------------------------------------------------------------------|
B|------5------5-------5-------5-------------------------------------------|
G|--7-------7------7-------7-----------------------------------------------|
D|----7---7---7--7---7---7---7---7-----------------------------------------|
A|-------------------------------------------------------------------------|
E|-------------------------------------------------------------------------|
   A
e|-------------------------------------------------------------------------|
B|------5-------5-------5-------5------------------------------------------|
G|--6-------6-------6-------6----------------------------------------------|
D|----7---7---7---7---7---7---7---7----------------------------------------|
A|-------------------------------------------------------------------------|
E|-------------------------------------------------------------------------|
   E
e|-------------------------------------------------------------------------|
B|------5-------5-------5-------5------------------------------------------|
G|--4-------4-------4-------4----------------------------------------------|
D|----6---6---6---6---6---6---6---6----------------------------------------|
A|-------------------------------------------------------------------------|
E|-------------------------------------------------------------------------|

   
   CHOURUS:
    D                A
e|--x----------------5-----------------------------------------------------|
B|--7----------------5-----------------------------------------------------|
G|--7----------------6-----------------------------------------------------|
D|--7----------------7-----------------------------------------------------|
A|--5----------------7-----------------------------------------------------|
E|--x----------------5-----------------------------------------------------|
    
    D                A
e|-------------------------------------------------------------------------|
B|-------------------------------------------------------------------------|
G|-------------------------------------------------------------------------|
D|-------------------------------------------------------------------------|
A|-------------------------------------------------------------------------|
E|-------------------------------------------------------------------------|
    D       E        F dimished  F#m
e|----------0--------1-----------2-----------------------------------------|
B|----------0--------1-----------2-----------------------------------------|
G|----------1--------1-----------2-----------------------------------------|
D|----------2--------3-----------4-----------------------------------------|
A|----------2--------4-----------4-----------------------------------------|
E|----------0--------1-----------2-----------------------------------------|
    D                E
e|-------------------------------------------------------------------------|
B|-------------------------------------------------------------------------|
G|-------------------------------------------------------------------------|
D|-------------------------------------------------------------------------|
A|-------------------------------------------------------------------------|
E|-------------------------------------------------------------------------|

BRIDGE:
    F#m        G#    A
e|-------------4-----------------------------------------------------------|
B|-------------4-----------------------------------------------------------|
G|-------------5-----------------------------------------------------------|
D|-------------6-----------------------------------------------------------|
A|-------------6-----------------------------------------------------------|
E|-------------4-----------------------------------------------------------|
    F#m              A 
e|-------------------------------------------------------------------------|
B|-------------------------------------------------------------------------|
G|-------------------------------------------------------------------------|
D|-------------------------------------------------------------------------|
A|-------------------------------------------------------------------------|
E|-------------------------------------------------------------------------|

    F#m              A
e|-------------------------------------------------------------------------|
B|-------------------------------------------------------------------------|
G|-------------------------------------------------------------------------|
D|-------------------------------------------------------------------------|
A|-------------------------------------------------------------------------|
E|-------------------------------------------------------------------------|
    E                E
e|-------------------------------------------------------------------------|
B|-------------------------------------------------------------------------|
G|-------------------------------------------------------------------------|
D|-------------------------------------------------------------------------|
A|-------------------------------------------------------------------------|
E|-------------------------------------------------------------------------|

  
   CHOURUS:X2
    D                A
e|--x----------------5-----------------------------------------------------|
B|--7----------------5-----------------------------------------------------|
G|--7----------------6-----------------------------------------------------|
D|--7----------------7-----------------------------------------------------|
A|--5----------------7-----------------------------------------------------|
E|--x----------------5-----------------------------------------------------|
    
    D                A
e|-------------------------------------------------------------------------|
B|-------------------------------------------------------------------------|
G|-------------------------------------------------------------------------|
D|-------------------------------------------------------------------------|
A|-------------------------------------------------------------------------|
E|-------------------------------------------------------------------------|
    D       E        F dimished  F#m
e|----------0--------1-----------2-----------------------------------------|
B|----------0--------1-----------2-----------------------------------------|
G|----------1--------1-----------2-----------------------------------------|
D|----------2--------3-----------4-----------------------------------------|
A|----------2--------4-----------4-----------------------------------------|
E|----------0--------1-----------2-----------------------------------------|
    D                E
e|-------------------------------------------------------------------------|
B|-------------------------------------------------------------------------|
G|-------------------------------------------------------------------------|
D|-------------------------------------------------------------------------|
A|-------------------------------------------------------------------------|
E|-------------------------------------------------------------------------|

OUTRO:

   A 
e|-------------------------------------------------------------------------|
B|------5-------5-------5-------5------------------------------------------|
G|--6-------6-------6-------6----------------------------------------------|
D|----7---7---7---7---7---7---7---7----------------------------------------|
A|-------------------------------------------------------------------------|
E|-------------------------------------------------------------------------|
   D
e|-------------------------------------------------------------------------|
B|------5------5-------5-------5-------------------------------------------|
G|--7-------7------7-------7-----------------------------------------------|
D|----7---7---7--7---7---7---7---7-----------------------------------------|
A|-------------------------------------------------------------------------|
E|-------------------------------------------------------------------------|
   A
e|-------------------------------------------------------------------------|
B|------5-------5-------5-------5------------------------------------------|
G|--6-------6-------6-------6----------------------------------------------|
D|----7---7---7---7---7---7---7---7----------------------------------------|
A|-------------------------------------------------------------------------|
E|-------------------------------------------------------------------------|
   E
e|-------------------------------------------------------------------------|
B|------5-------5-------5-------5------------------------------------------|
G|--4-------4-------4-------4----------------------------------------------|
D|----6---6---6---6---6---6---6---6----------------------------------------|
A|-------------------------------------------------------------------------|
E|-------------------------------------------------------------------------|

************************************

| /   slide up
| \   slide down
| h   hammer-on
| p   pull-off
| ~   vibrato
| +   harmonic
| x   Mute note
| b   Bend
| pb  Pre-bend
| br  Bend release
| pbr Pre-bend release
| brb Bend release bend

************************************
Tap to rate this tab
 
# A B C D E F G H I J K L M N O P Q R S T U V W X Y Z