Song name
# A B C D E F G H I J K L M N O P Q R S T U V W X Y Z

We The Kings - Well Be A Dream tab

this is my first tab and i played it all by ear
so, the 3rd part, might be wrong but i hope you
like it =]

---------5--4--2--0--------5--4--2--0--0-------|
---------------------4--3----------------------|
-----------------------------------------------|
-----------------------------------------------|
-----------------------------------------------|
-----------------------------------------------|
When the lights go out, we'll be safe and sound

-0--5--4--2--2--2--4--2--4--4--7--5--0---------|
----------------------------------------4------|
-----------------------------------------------|
-----------------------------------------------|
-----------------------------------------------|
-----------------------------------------------|
We'll take control of the world
like it's all we have to hold

---------5--4--0-------------------------------|
------------------2----------------------------|
-7h5--3----------------------------------------|
-----------------------------------------------|
-----------------------------------------------|
-----------------------------------------------|
on to
And we'll be a dream
Tap to rate this tab
 
# A B C D E F G H I J K L M N O P Q R S T U V W X Y Z