We The Kings - Anna Maria All We Need tab

Artist: We The Kings
Song: Anna Maria (All We Need)
Album: Smile, Kid
Tabbed by: gustavoaraujo999@hotmail.com

**These are the lead parts only

[Intro]
00:00
e|---------10-|------|-------14-10--|
B|----10------|------|----10--------|
G|-11----11---|-[x3]-|-11-----------| [x2]
D|------------|------|--------------|
A|------------|------|--------------|
E|------------|------|--------------|

[Verse 1]
00:20
e|---------10-|------|-------14-10--|
B|----10------|------|----10--------|
G|-11----11---|-[x3]-|-11-----------| [ through   ]
D|------------|------|--------------| [whole verse]
A|------------|------|--------------|
E|------------|------|--------------|

00:27
e|--------------------------------|
B|-12---10---------12---10--------|
G|----------9~--------------9--7~-|
D|--------------------------------|
A|--------------------------------|
E|--------------------------------|

0:34
e|------------------------------------------|
B|-12-10----------12-10----------12-10------|	[x3]
G|-------11-9-----------11-9-----------11-9-| 
D|------------12-------------12-------------| [donít play the last 9]
A|------------------------------------------| [the last time through]
E|------------------------------------------| 

[Verse 2]
01:08
e|---------10-|------|-------14-10--|
B|----10------|------|----10--------|
G|-11----11---|-[x3]-|-11-----------| [ through   ]
D|------------|------|--------------| [whole verse]
A|------------|------|--------------|
E|------------|------|--------------|

01:15
e|--------------------------------|
B|-12---10---------12---10--------|
G|----------9~--------------9--7~-|
D|--------------------------------|
A|--------------------------------|
E|--------------------------------|

1:21
e|------------------------------------------|
B|-12-10----------12-10----------12-10------|	
G|-------11-9-----------11-9-----------11-9-| [x3]
D|------------12-------------12-------------|
A|------------------------------------------|
E|------------------------------------------| 
Tap to rate this tab
 
# A B C D E F G H I J K L M N O P Q R S T U V W X Y Z