Song name
# A B C D E F G H I J K L M N O P Q R S T U V W X Y Z

We The Kings - The View From Here tab

The View From Here
We The Kings
(Lead Intro)
Standard Tuning

|

e|-----------12----------12--------12---------12------------------|
B|----10-----------10p9-------9p7-------7h9-----------------------|
G|----------------------------------------------------------------|
D|----------------------------------------------------------------|
A|----------------------------------------------------------------|
E|----------------------------------------------------------------|

===================================
||

e|-----------12----------12--------12---------12------------------|
B|----9h10-----------10p9-------9p7-------7h9---------------------|
G|----------------------------------------------------------------|
D|----------------------------------------------------------------|
A|----------------------------------------------------------------|
E|----------------------------------------------------------------|

REPEAT AT ||
Tap to rate this tab
# A B C D E F G H I J K L M N O P Q R S T U V W X Y Z