Song name
# A B C D E F G H I J K L M N O P Q R S T U V W X Y Z

We The Kings - Say You Like Me Acoustic chords

Highlighted       Show chord diagrams
Im a beginner at tabbing so sorry if this in not perfect. I havent seen anyone get the
intro right, or all of the chords right either, but i think i got really close. It is
easier to play this song on capo 2,(and if you want to  play it on capo 2, then just hit 
the transpose button when it is on down 2 half steps) but when you play it with no 
capo, it
sounds more like the real thing. Enjoy and please rate!

NO CAPO

STANDARD TUNING


                     Say You Like Me Acoustic



    INTRO/VERSE I
The intro is a little complex, so I tabbed it for you
*Play softly and slowly

|-x----------------x-------------x---|
|-7----------------9-------------14--|
|-7----------------9-------------14--|
|-7----------------9-------------14--|
|-5----------------7-------------12--|
|-x----------------x-------------x---|
Shes the girl that no one ever knows

|-x----------------x---------------x---|
|-7----------------9---------------14--|
|-7----------------9---------------14--|
|-7----------------9---------------14--|
|-5----------------7---------------12--|
|-x----------------x---------------x---|
And I say hi, but she's too shy to say hello

|-x----------------x-----------------x---------------x-----x---x--|
|-7----------------9-----------------9---------------10----9---7--|
|-7----------------9-----------------9---------------11----9---7--|
|-7----------------9----------------11---------------11----9---7--|
|-5----------------7----------------11---------------9-----7---5--|
|-x----------------x-----------------x---------------x-----x---x--|
Shes just waiting for that one, To take her hand and shake her up

|--x----x---|
|--9----14--|
|--9----14--|
|--9----14--|
|--7----12--|
|--x----x---|
I bet I could


*On this part it sounds good to play bar chords. but just normal open chords sound O.K. too

VERSE II

        D             E              A
I wish my heart was always on her mind
        D                   E                A
Cause she's on mine like all day all the time
      D              E
Forget me not, forget me now
     C#m             F#m E   D
Ive come too far to turn a-round
   E      A
Im here tonight


CHORUS
                       D
Cause Im never going down

Im never giving up
                  A
Im never gonna leave

So put your hands up
             F#m
If you like me
                   E
Then say you like me

(REPEAT CHORUS)


         D
Whoa, oh, oh, oh
         A
Whoa, oh, oh, oh
        F#m
Whoa, oh, oh, oh
         E
Whoa, oh, oh, oh


VERSE III

 D                    E             A
Shes the girl that no one ever knows
 D              E                     A
Works a double just to buy her clothes
  D             E
Nicotine and faded dreams
 C#m         F#m
Baby just believe
E      D       E        A
Theres no one else like me


CHORUS
                       D
Cause Im never going down

Im never giving up
                  A
Im never gonna leave

So put your hands up
             F#m
If you like me
                   E
Then say you like me

(REPEAT CHORUS)


         D
Whoa, oh, oh, oh
         A
Whoa, oh, oh, oh
        F#m
Whoa, oh, oh, oh
          E
Whoa, oh, oh, oh


BRIDGE
             F#m           E
Its time to fall into my arms
                  D              A
Cause Ive been waiting for too long
           F#m
Your and angel
            E
Grab your halo
          D      E
And lets fly, tonight


CHORUS
                      D
Cause Im never going down

Im never giving up
                  A
Im never gonna leave

So put your hands up
             F#m
If you like me
                   E
Then say you like me   (pause)

(REPEAT CHORUS)


        D
Whoa, oh, oh, oh
         A
Whoa, oh, oh, oh
        F#m
Whoa, oh, oh, oh
         E
Whoa, oh, oh, oh

                   A
Just Say You Like Me



Hope you enjoyed it
*Please Rate!
Tap to rate this tab
# A B C D E F G H I J K L M N O P Q R S T U V W X Y Z