Song name
# A B C D E F G H I J K L M N O P Q R S T U V W X Y Z

We The Kings - Check Yes Juliet Acoustic tab

Tuning: Drop D
D,A,D,G,B,e

FIRST POSITION
e--------|
B--------|
G---7----|
D---4----|
A---5----|
D--------|

SECOND POSITION (Bm Variant, barr second fret)
e---2----|
B---3----|
G---2----|
D---4----|
A---2----|
D--------|

THIRD POSITION
e--------|
B--------|
G---7----|
D---4----|
A--------|
D---5----|

INTRO:
(First Position)
e----------------------------------------------------------------------------|
B----------------------------------------------------------------------------|
G-----7------6-------7-------6-----------------------------------------------|
D--------------------------------7--4----------------------------------------|
A--5------5-------5-------5--------------------------------------------------|
D----------------------------------------------------------------------------|
*x2*

(Second Position)
e----------------------------------------------------------------------------|
B-----3------2------3------2-------------------------------------------------|
G------------------------------2---------------------------------------------|
D---------------------------------4------------------------------------------|
A--2------2------2------2----------------------------------------------------|
D----------------------------------------------------------------------------|

(Third Position)
e----------------------------------------------------------------------------|
B----------------------------------------------------------------------------|
G-----7------6------7------6-------------------------------------------------|
D-------------------------------7--4-----------------------------------------|
A----------------------------------------------------------------------------|
D--5------5------5------5----------------------------------------------------|


Thanks, This is my first online tab i've made, i hope it helped, i'll eventually write 
out the full song :)
Please feel free to contact me on jtodd32@hotmail.com :D
Call me Jai ;)
Tap to rate this tab
 
# A B C D E F G H I J K L M N O P Q R S T U V W X Y Z