Song name
# A B C D E F G H I J K L M N O P Q R S T U V W X Y Z

We The Kings - August Is Over tab

heyy :) not sure what the names of the chords are but this is how travis plays it 
acoustically( if thats a word haha )

Intro:

E |--0---0------------|
B |--0---0------------|
G |--2---1---2--------|
D |--2---2---4--------| x2
A |--0---2---4--------|
E |--x---0---x--------|

Verse:

E |--0--------0-------|
B |--0---0---0--------|
G |--1---1---2--------|
D |--2---1---2--------| x2
A |--2---2---0--------|
E |--0---0---x--------|

after the second time through the chord to end on is:

E |--0-----|
B |--0-----|
G |--4-----|
D |--4-----|
A |--2-----|
E |--x-----|

Pre-chorus:

E |--0---0---0-----|
B |--0---0---0-----|
G |--2---6---4-----|
D |--2---6---4-----| x2
A |--0---4---2-----|
E |--x---x---x-----|

Chorus:

E |--0---0---0---0--------0-------|
B |--0---0---0---0--------0-------|
G |--1---4---2---4---2---2--------|
D |--2---4---2---4---4---2--------| x2
A |--2---2---0---2---4---0--------|
E |--0---x---x---x---x---x--------|









Say a prayer
 The summer nights are dead
 The fall is coming
 We were careless hearts
 Who got caught up in this

You were shy
Till the night you drove me wild
 And you crashed into me
 And I won't lie
 I wish it lasted a lifetime

Please stay-ay-ay
 Won't you stay-ay-ay
 Tonight

Breathe in deep
And say goodbye
 The saddest song
 I'll ever write
 For anyone, anytime

Breathe in deep
 Before I say
 I can feel us slip away
 You're almost gone
 You're good as gone
August is over

Now we wait
 Cause August had to end
 All our bags are packed
 Just two broken hearts
 That got caught up in this

I deny
 That tomorrow you'll be gone
 And so far from me
 It's something strange
Never love the same way

Please stay-ay-ay
 Won't you stay-ay-ay
 Tonight

Breathe in deep
And say goodbye
 The saddest song
 I'll ever write
 For anyone, anytime

Breathe in deep
 Before I say
 I can feel us slip away
 You're almost gone
 You're good as gone

We can try to drown it out
 But it never stops breathing
 We can take it all in
 But it never slows down
 We've come down from that cloud

Well say-ay-ay
 What you gotta say-ay-ay
 Please say-ay-ay
 What you gotta say
 Whoa-a-oh-oh
 Whoa-a-oh-oh

Breathe in deep
And say goodbye
 The saddest song
 I'll ever write
 For anyone, anytime

Breathe in deep
 Before I say
 I can feel us slip away
 You're almost gone
 You're good as gone
 August is over
 We're not the reason
 August is over
Tap to rate this tab
# A B C D E F G H I J K L M N O P Q R S T U V W X Y Z