Song name
# A B C D E F G H I J K L M N O P Q R S T U V W X Y Z

We The Kings - Party Fun Love And Radio tab

Verse/prechorus: 0:11-0:40
e:----------------------------------------------------|
B:----------------------------------------------------|
G:----------------------------------------------------|
D:--3---3---3---3---3-3---7---7---5---5---5-5---------|    x8
A:--3---3---3---3---3-3---7---7---5---5---5-5---------|
E:--1---1---1---1---1-1---5---5---3---3---3-3---------|


Chorus: 0:41-0:51
e:---------------------------------------|
B:---------------------------------------|
G:---------------------------------------|
D:--3------7-------5---------------------| x3
A:--3(x8)--7-(x3)--5-(x5)----------------|
E:--1------5-------3---------------------|

Chorus: "Our time is runnin' out"
e:----------------------------|
B:----------------------------|
G:----------------------------|
D:--3------5------------------|
A:--3(x8)--5-(x8)-------------|
E:--1------3------------------|

Repeat Verse/Prechorus
Repeat Chorus

Bridge:"Shout out"
e:--------------------------------------|
B:--------------------------------------|
G:--------------------------------------|
D:--7--------7--------7-----------------|
A:--7--------7--------7-----------------|
E:--5--------5--------5----slide--------|
Repeat Chorus

Lead riff:
e:----11--11-11-10--11--11-11-10--11--11-11-10-11-13-11-10-| x3

e:----11--11-11-10--11--11-11-10-13  x1
Tap to rate this tab
# A B C D E F G H I J K L M N O P Q R S T U V W X Y Z