Song name
# A B C D E F G H I J K L M N O P Q R S T U V W X Y Z

We The Kings - Just Keep Breathing tab

-------------------------------------------------------------------------------
                             Just Keep Breathing - We The Kings
-------------------------------------------------------------------------------
Tabbed by: Josh Alvey
E-mail: N/A

Tuning: Standard

This is the little acoustic riff that gets repeated throughout the whole song.

I learned this by ear and by watching a live acoustic performance, so it might not be 
100% right! Please comment if you have a better way of playing it! I want to find the best way!

CAPO 5 or 7 (Varies in different live performances I've seen)

e|-0------0------0-------------------------------------------------------------|
B|---0------0------0-----------------------------------------------------------|
G|-----------------------------------------------------------------------------|
D|--2-2---/4-4---/6-6----------------------------------------------------------|
A|-----------------------------------------------------------------------------|
E|-----------------------------------------------------------------------------|

Go back and end on this before the chorus

e|--------0-----------------------------------------------------------------|
B|----------0---------------------------------------------------------------|
G|--------------------------------------------------------------------------|
D|--------/4-4--------------------------------------------------------------|
A|--------------------------------------------------------------------------|
E|--------------------------------------------------------------------------|



************************************

| /   slide up
| \   slide down
| h   hammer-on
| p   pull-off
| ~   vibrato
| +   harmonic
| x   Mute note
| b   Bend
| pb  Pre-bend
| br  Bend release
| pbr Pre-bend release
| brb Bend release bend

************************************
Tap to rate this tab
 
# A B C D E F G H I J K L M N O P Q R S T U V W X Y Z