Song name
# A B C D E F G H I J K L M N O P Q R S T U V W X Y Z

We The Kings - Party Fun Love And Radio tab

WE THE KINGS – “PARTY FUN LOVE & RADIO” TAB

*Drop D Tuning.

Verse/Pre-chorus: 0:11-0:40
e:-----------------------------------------------------|
B:-----------------------------------------------------|
G:--5---5---5---5---5-5---9---9---7---7---7-7----------|
D:--3---3---3---3---3-3---7---7---5---5---5-5----------|   x8
A:-----------------------------------------------------|
D:-----------------------------------------------------|


Chorus:
e:---------------------------------------------|
B:---------------------------------------------|
G:--5-------9--------7-------------------------|
D:--3-------7--------5-------------------------| x3
A:--3-(x8)---7-(x3)----5(x5)-------------------|
D:--3-------7--------5-------------------------|

Chorus: "Our time is runnin' out"
e:-------------------------------|
B:-------------------------------|
G:--5------7---------------------|
D:--3------5---------------------|
A:--3-(x8)--5-(x8)---------------|
D:--3------5---------------------|

Repeat Chorus x4

Repeat Verse/Pre-chorus x8

Repeat Chorus x3

Chorus: "Our time is runnin' out"
e:----------------------------|
B:----------------------------|
G:--5------7------------------|
D:--3------5------------------|
A:--3(x8)--5-(x8)-------------|
D:--3------5------------------|

Repeat Chorus x2


Bridge:"Shout out"
e:--------------------------------------|
B:--------------------------------------|
G:--------------------------------------|
D:--3-----------------------------------|
A:--3-----------------------------------|
D:--3----------slide down---------------|

Repeat Verse/Pre-chorus over Rap: 2:16-2:30 x4

Repeat Chorus x3

Chorus: "Our time is runnin' out"
e:----------------------------|
B:----------------------------|
G:--5------7------------------|
D:--3------5------------------|
A:--3(x8)--5-(x8)-------------|
D:--3------5------------------|

Repeat Chorus x3

Chorus: "Our time is runnin' out"
e:----------------------------|
B:----------------------------|
G:--5------7------------------|
D:--3------5------------------|
A:--3(x8)--5-(x8)-------------|
D:--3------5------------------|

Finally, Repeat Chorus x4

Lead riff:
e:-----------------------------8--------|
B:--10-10-8-10-10-8-10-10-8-10---10-8---|
G:--------------------------------------|
D:--------------------------------------|
A:--------------------------------------|
D:--------------------------------------|
Tap to rate this tab
# A B C D E F G H I J K L M N O P Q R S T U V W X Y Z