Song name
# A B C D E F G H I J K L M N O P Q R S T U V W X Y Z

We Were Promised Jetpacks - Short Bursts Acoustic tab

Artist: We Were Promised Jetpacks
Song: Short Bursts (Acoustic)
Tabbed by: Christopher Schlosberg
Artist Official Website: http://fat-cat.co.uk/fatcat/artist/we+were+promised+jetpacks


Listen to the song for the rhythm!

Part I Tabs:

e|------------------------------------------------------|	
b|--------------------8---------------------------------|	
g|---------7--------------------------7---------7-------|   x2
d|---------------9-------------------------9------------|		
a|--10--------------------------------------------------|		
d|------------------------------------------------------|	

e|------------------------------------------------------|
b|------------------------------------------------------|	
g|---------6----------6--------------6----------6-------|	
d|---------------7-------------------------7------------|	
a|---9--------------------------------------------------|	
d|------------------------------------------------------|

e|------------------------------------------------------|	
b|--------------------7---------------------------------|		
g|---------6-------------------------6----------6-------|	
d|----------------8------------------------8------------|	
a|---9--------------------------------------------------|
d|------------------------------------------------------|

Part I Chords:

e    x    x    x
b    8    x    7	
g    7    6    6
d    9    7    8	
a    10   9    9	
d    x    x    x

Part II Chords:

e    x    x    x
b    x    x    x
g    7    9    11
d    9    11   12
a    x    x    x
d    9    11   12

Part III Chords:

e    x    10   5
b    7    7    7
g    7    7    7
d    x    x    x
a    x    x    x
d    5    9    7
Tap to rate this tab
# A B C D E F G H I J K L M N O P Q R S T U V W X Y Z