Song name
# A B C D E F G H I J K L M N O P Q R S T U V W X Y Z

We Were Promised Jetpacks - Moving Clocks Run Slow tab

Guitar 1 - Adam
E|----------------|----------------|----------------|----------------|
B|----------------|----------------|--1---1---1---1-|--1---1---1---1-|
G|--2---2---2---2-|--2---2---2---2-|----------------|----------------|
D|----------------|----------------|0---0---0---0---|0---0-----------|
A|1---1---1---1---|3---3---3---3---|----------------|--------3---3---|
E|----------------|----------------|----------------|----------------|

E|----------------|----------------|----------------|----------------|
B|----------------|----------------|----------------|----------------|
G|--2---2---2---2-|--2---2---2---2-|--2---2---2---2-|--3---3---2---2-|
D|----------------|----------------|----------------|----------------|
A|1---1---1---1---|3---3---3---3---|----------------|----------------|
E|----------------|----------------|1---1---1---1---|1---1---1---1---|

Guitar 2 - Other Guy
E|----------------|----------------|----------------|----------------|
B|----------------|----------------|----1-----------|----------------|
G|----3-2-----0-2-|----3-2-----0-2-|------2-----0-2-|----3-2-----0-2-|
D|0-3-------3-----|--3-------3-----|--3-------3-----|--3-------3-----|
A|----------------|----------------|----------------|----------------|
E|----------------|----------------|----------------|----------------|

I love this song. It's my favorite, but I can't figure out the chords, so here's the 
If I figure out the chords, I'll put them up too.
Tap to rate this tab
 
# A B C D E F G H I J K L M N O P Q R S T U V W X Y Z