Song name
# A B C D E F G H I J K L M N O P Q R S T U V W X Y Z

We Were Promised Jetpacks - Its Thunder And Its Lighting tab

This song is so epic. It's slowly builds up into an incredibly powerful
song. Adam plays this song in Drop D. It's easier to fret the chords in
drop D, even though it is possible to play this song in Standard Tuning.
Watch an up-close acoustic version where you can see all the fingerings
here: http://vimeo.com/6238124 


(0:00)
  Bm               A                D                G
E|----------------|----------------|----------------|----------------|
B|----------------|----------------|----------------|----------------|
G|----------------|----------------|----------------|----------------|
D|--0---0---0---0-|--0---0---0---0-|--0---0---0---0-|--0---0---0---0-|
A|----------------|----------------|----------------|----------------|
D|9---9---9---9---|7---7---7---7---|12--12--12--12--|5---5---5---5---|
  G                A                F#m
E|----------------|----------------|----------------|----------------|
B|----------------|----------------|----------------|----------------|
G|----------------|----------------|----------------|----------------|
D|--0---0---0---0-|--0---0---0---0-|--0---0---0---0-|--0---0---0---0-|
A|----------------|----------------|----------------|----------------|
D|5---5---5---5---|7---7---7---7---|4---4---4---4---|4---4---2---2---|
                 He doesn't play the 2's once the lyrics come in.^


(0:46)
E|----------------|----------------|----------------|----------------|
B|----------------|----------------|----------------|----------------|
G|------7---------|------6---------|------11--------|------4---------|
D|--0-------0---0-|--0-------0---0-|--0-------0---0-|--0-------0---0-|
A|----------------|----------------|----------------|----------------|
D|9---9---9---9---|7---7---7---7---|12--12--12--12--|5---5---5---5---|

E|----------------|----------------|----------------|----------------|
B|----------------|----------------|----------------|----------------|
G|----------------|------6---------|------2---------|----------------|
D|--0---0---0---0-|--0-------0---0-|--0-------0---0-|--0---0---0---0-|
A|----------------|----------------|----------------|----------------|
D|5---5---5---5---|7---7---7---7---|4---4---4---4---|4---4---4---4---|


(0:57) - Same as (0:00)


(1:08) - Same as (0:46)


(1:20)
E|----------------|----------------|-elevens-and----|----------------|
B|----------------|----------------|----twelves-----|----------------|
G|7-7-7-7-7-7-7-77|6-6-6-6-6-6-6-66|1111111111111111|4-4-4-4-4-4-4-4-|
D|0-0-0-0-0-0-0-00|0-0-0-0-0-0-0-00|0-0-0-0-0-0-0-0-|0-0-0-0-0-0-0-0-|
A|9-9-9-9-9-9-9-99|7-7-7-7-7-7-7-77|1212121212121212|5-5-5-5-5-5-5-5-|
D|9-9-9-9-9-9-9-99|7-7-7-7-7-7-7-77|1212121212121212|5-5-5-5-5-5-5-5-|

E|----------------|----------------|----------------|----------------|
B|----------------|----------------|----------------|----------------|
G|4-4-4-4-4-4-4-44|6-6-6-6-6-6-6-66|2-2-2-2-2-2-2-2-|2-2-2-2-2-2-2-22|
D|0-0-0-0-0-0-0-00|0-0-0-0-0-0-0-00|0-0-0-0-0-0-0-0-|0-0-0-0-0-0-0-00|
A|5-5-5-5-5-5-5-55|7-7-7-7-7-7-7-77|4-4-4-4-4-4-4-4-|4-4-4-4-4-4-4-44|
D|5-5-5-5-5-5-5-55|7-7-7-7-7-7-7-77|4-4-4-4-4-4-4-4-|4-4-4-4-4-4-4-44|



(2:04)
E|----------------|----------------|----------------|----------------|
B|----------------|----------------|----------------|----------------|
G|2~--------------|----------------|4~--------------|----------------|
D|0~--------------|----------------|0~--------------|----------------|
A|4~--------------|----------------|5~--------------|----------------|
D|4~--------------|----------------|5~--------------|----------------|

E|----------------|----------------|----------------|----------------|
B|----------------|----------------|----------------|----------------|
G|2~--------------|----------------|4~--------------|----------666-22|
D|0~--------------|----------------|0~--------------|----------000-00|
A|4~--------------|----------------|5~--------------|----------777-44|
D|4~--------------|----------------|5~--------------|----------777-44|

E|----------------|----------------|----------------|----------------|
B|----------------|----------------|----------------|----------------|
G|2-2-2-2-2-2-2-2-|2-2-2-2-2-666-44|4-4-4-4-4-4-4-4-|4-4-4-4-4-666-22|
D|0-0-0-0-0-0-0-0-|0-0-0-0-0-000-00|0-0-0-0-0-0-0-0-|0-0-0-0-0-000-00|
A|4-4-4-4-4-4-4-4-|4-4-4-4-4-777-55|5-5-5-5-5-5-5-5-|5-5-5-5-5-777-44|
D|4-4-4-4-4-4-4-4-|4-4-4-4-4-777-55|5-5-5-5-5-5-5-5-|5-5-5-5-5-777-44|


(2:38)
E|----------------|----------------|
B|----------------|----------------|
G|6--6--6-6--6--6-|6--6--6-6--6--6-|
D|0--0--0-0--0--0-|0--0--0-0--0--0-|
A|7--7--7-7--7--7-|7--7--7-7--7--7-|
D|7--7--7-7--7--7-|7--7--7-7--7--7-|


(2:41)
E|----------------|----------------|----------------|----------------|
B|----------------|----------------|----------------|----------------|
G|7--7--7-7--7--7-|7--7--7-7--7--77|4--4--4-4--4--44|4--4--4-4--4--44|
D|7--7--7-7--7--7-|7--7--7-7--7--77|0--0--0-0--0--00|0--0--0-0--0--00|
A|9--9--9-9--9--9-|9--9--9-9--9--99|5--5--5-5--5--55|5--5--5-5--5--55|
D|0--0--0-0--0--0-|0--0--0-0--0--00|5--5--5-5--5--55|5--5--5-5--5--55|

E|----------------|----------------|----------------|----------------|
B|----------------|----------------|----------------|----------------|
G|2--2--2-2--2--22|2--2--2-2--2--22|7--7--7-7--7--77|6--6--6-6--6--66|
D|0--0--0-0--0--00|0--0--0-0--0--00|0--0--0-0--0--00|0--0--0-0--0--00|
A|4--4--4-4--4--44|4--4--4-4--4--44|9--9--9-9--9--99|7--7--7-7--7--77|
D|4--4--4-4--4--44|4--4--4-4--4--44|9--9--9-9--9--99|7--7--7-7--7--77|


(4:06)
E|----------------|----------------|----------------|----------------|
B|7-77778-7-7-7-77|7-77778-7-7-7-77|5-55555-5-5-5-55|5-55555-3--3--3-|
G|7-77777-7-7-7-77|7-77777-7-7-7-77|6-66666-6-6-6-66|6-66666-4--4--4-|
D|0-00000-0-0-0-00|0-00000-0-0-0-00|0-00000-0-0-0-00|0-00000-0--0--0-|
A|9-99999-9-9-9-99|9-99999-9-9-9-99|7-77777-7-7-7-77|7-77777-5--5--5-|
D|9-99999-9-9-9-99|9-99999-9-9-9-99|7-77777-7-7-7-77|7-77777-5--5--5-|


(4:18)
E|----------------|----------------|----------------|----------------|
B|7~--------------|----------------|5~--------------|--------3--3--3-|
G|7~--------------|----------------|6~--------------|--------4--4--4-|
D|0~--------------|----------------|0~--------------|--------0--0--0-|
A|9~--------------|----------------|7~--------------|--------5--5--5-|
D|9~--------------|----------------|7~--------------|--------5--5--5-|
Tap to rate this tab
 
# A B C D E F G H I J K L M N O P Q R S T U V W X Y Z