Song name
# A B C D E F G H I J K L M N O P Q R S T U V W X Y Z

We Were Promised Jetpacks - Conductor tab

Super easy, suprised no ones taken the five seconds to tab this out


Main riff

E|--------------------------------------------------------------------|
B|--------------------------------------------------------------------|
G|--------------------------------------------------------------------|
D|-----9---9---9---9---9---9---9---9----9---9---9---9---9---9---9---9-|
A|--------------------------------------------------------------------|
E|---0---0---0---0---0---0---0---0---11--11--11--11--11--11--11--11---|


when you're not playing that, chances are you're playing this-

E|---0----------X------------|
B|---0----------0------------|
G|---9----X12---8-----X12----|
D|---9----------9------------|
A|---11---------11-----------|
E|---0----------11-----------|
Tap to rate this tab
 
# A B C D E F G H I J K L M N O P Q R S T U V W X Y Z