Song name
# A B C D E F G H I J K L M N O P Q R S T U V W X Y Z

Weakerthans - Left And Leaving tab

-------------------------------------------------------------------------------
	         Left and Leaving Solo  The Weakerthans
-------------------------------------------------------------------------------
Tabbed by: fenderatticus
Email: jaskateboards@yahoo.com

This pretty accurate, but its definitely not 100% (especially the last
 little riff).  I'm going to try to get to tabbing the entire lead for 
the song, but it might take awhile.  Enjoy!

Tuning: standard

e|------------------------------------------------------------------|
B|------------------------------------------------------------------|
G|---3-4-4/6\4--6-4-6-3-3-4-----------3-4-4/6\4--4h3h1--------------|
D|-4------------------------2-4-----4------------------4--4h2h1-----|
A|---------------------------------------------------------------2/-|
E|------------------------------------------------------------------|

e|------------------------------------------------------------------|
B|-----5/7-5------4/5-4--------4-2-2--------------------------------|
G|-3-4--------1-3--------------------4-1----------------------------|
D|------------------------4h6---------------------------------------|
A|------------------------------------------------------------------|
E|------------------------------------------------------------------|

e|------------------------------------------------------------------|
B|-----5/7-5-4------4/5-4-2------4---7h5p4--------------------------|
G|--3-4----------1-3------------------------4-1-3-4-4---------------|
D|---------------------------4h6------------------------------------|
A|------------------------------------------------------------------|
E|------------------------------------------------------------------|



| /  slide up
| \  slide down
| h  hammer-on
| p  pull-off
| ~  vibrato
| +  harmonic
| x  Mute note
Tap to rate this tab
# A B C D E F G H I J K L M N O P Q R S T U V W X Y Z