Guitaretab - guitar tabs
Song name
# A B C D E F G H I J K L M N O P Q R S T U V W X Y Z

Weakerthans - My Favourite Chords tab

Tabbed by Jonathan Terhorst
terhorst-gmail (you supply the rest)

Standard Tuning
Key of G

He uses palm muting throughout. Also, the pair of eighth notes after each dead chord are upstrokes.

There are two patterns in the song. 

#1:

They're tearing up streets...

     G6                         Cadd9
E||------x-0--0------x-0--0--|--------x--0--0-----x--0--0--|
B||------x-3--3------x-3--3--|--------x--3--3-----x--3--3--|
G||------x-0--0------x-0--0--|--------x--0--0-----x--0--0--|
D||------x-0--0------x-0--0--|--0h-2--x--2--2-----x--2--2--|
A||------x-----------x-------|--0h-3--x--------3--x--------|
E||--3---x-------3---x-------|-----------------------------|

They're building a new...

  D7sus2                     Dsus2
-----x--0--0-----x--0--0--|-----x--0--0-----x--0--0--|
-----x--1--1-----x--1--1--|-----x--3--3-----x--3--3--|
-----x--2--2-----x--2--2--|-----x--2--2-----x--2--2--|
--0--x--0--0--0--x--0--0--|--0--x--0--0--0--x--0--0--|
--------------------------|--------------------------|
--------------------------|--------------------------|

#2

And bring your swiss army...               
[ Tab from: http://www.guitaretab.com/w/weakerthans/71920.html ]
  Cadd9                         Cadd9
--------x--0--0-----x--0--0--|--------x--0--0-----x--0--0--|
--------x--3--3-----x--3--3--|--------x--3--3-----x--3--3--|
--------x--0--0-----x--0--0--|--------x--0--0-----x--0--0--|
--0h-2--x--2--2-----x--2--2--|--0h-2--x--2--2-----x--2--2--|
--0h-3--x--------3--x--------|--0h-3--x--------3--x--------|
-----------------------------|-----------------------------|

And a bottle of something...

  G6                        G6/F#
------x-0--0------x-0--0--|------x-0--0------x-0--0--|
------x-3--3------x-3--3--|------x-3--3------x-3--3--|
------x-0--0------x-0--0--|------x-0--0------x-0--0--|
------x-0--0------x-0--0--|------x-0--0------x-0--0--|
------x-----------x-------|------x-----------x-------|
--3---x-------3---x-------|--2---x-------2---x-------|

  Em7                        Cadd9
------x-0--0------x-0--0--|--------x--0--0-----x--0--0--|
------x-3--3------x-3--3--|--------x--3--3-----x--3--3--|
------x-0--0------x-0--0--|--------x--0--0-----x--0--0--|
------x-2--2------x-2--2--|--0h-2--x--2--2-----x--2--2--|
------x-2--2------x-2--2--|--0h-3--x--------3--x--------|
--0---x-------0---x-------|-----------------------------|

... some spraypaint, and a new deck of cards ... 

  Cadd9                         D7sus2
--------x--0--0-----x--0--0--|-----x--0--0-----x--0--0--|
--------x--3--3-----x--3--3--|-----x--1--1-----x--1--1--|
--------x--0--0-----x--0--0--|-----x--2--2-----x--2--2--|
--0h-2--x--2--2-----x--2--2--|--0--x--0--0--0--x--0--0--|
--0h-3--x--------3--x--------|--------------------------|
-----------------------------|--------------------------|

  Dsus2
-----x--0--0-----x--0--0--||
-----x--3--3-----x--3--3--||
-----x--2--2-----x--2--2--||
--0--x--0--0--0--x--0--0--||
--------------------------||
--------------------------||
Related for My Favourite Chords tab
Advertisement will be closed in 10 seconds