Guitaretab - guitar tabs
Song name
# A B C D E F G H I J K L M N O P Q R S T U V W X Y Z

Weakerthans - Left And Leaving tab

-------------------------------------------------------------------------------
	         Left and Leaving Solo  The Weakerthans
-------------------------------------------------------------------------------
Tabbed by: Julian
Email: JooL33t@yahoo.com

I didnt see any tabs up for the solo part, so I thought Id give it a shot. This is, I
the basic foundation of it. I wanted to for once, be a contributor. Most likely its
to have some errors, but its all in the sake of learning right?(my first tab =])You can 
take this rough draft and tweak it to your liking though, just listen to the song for
added effects I may have missed.

*Note  during the last two parts, the ending is a bit fuzzy so you can just listen to
song to see how it really goes. Enjoy!


Tuning: standard

e|------------------------------------------------------------------|
B|------------------------------------------------------------------|
G|------------------------------------------------------------------|
D|---8/9--11--9-----11--9--11--88/9--------------------------------|
A|-9----------------------------------7/9---------------------------|
E|------------------------------------------------------------------|
[ Tab from: http://www.guitaretab.com/w/weakerthans/95886.html ]
e|------------------------------------------------------------------|
B|------------------------------------------------------------------|
G|------------------------------------------------------------------|
D|---8/9--11--9-----9h8h6-------------------------------------------|
A|-9----------------------9---9h7h6--7------------------------------|
E|------------------------------------------------------------------|

e|------------------------------------------------------------------|
B|------------------------------------------------------------------|
G|------11-9-------9-8-------8-6------------------------------------|
D|-8/9--------6/8-------4/6-----------------------------------------|
A|------------------------------------------------------------------|
E|------------------------------------------------------------------|

e|------------------------------------------------------------------|
B|------------------------------------------------------------------|
G|------11-9-8------9-8-6-------8-6---------------------------------|
D|-8/9----------6/8--------4/6--------------------------------------|
A|------------------------------------------------------------------|
E|------------------------------------------------------------------|


| /  slide up
| \  slide down
| h  hammer-on
| p  pull-off
| ~  vibrato
| +  harmonic
| x  Mute note
Related for Left And Leaving tab