Song name
# A B C D E F G H I J K L M N O P Q R S T U V W X Y Z

Weatherbox - Is Nice tab

LISTEN TO FIND THE STRUMMING 

"i walk in.... i ooze and i bleed"
e|-------------|
B|-------------|
G|-------------|  6x
D|11----9----4-| 
A|-------------|
D|12----11---5-|

" I walk-BEACH IS NICE AT DAY"
e|-------------|
B|-------------|
G|-------------|  1x
D|11----9----6-| 
A|-------------|
D|12----11---7-|

"TIME TO GO BACK..."
e|-------------|
B|-------------|
G|-------------|  1x
D|11----9----4-| 
A|-------------|
D|12----11---5-|

e|-------------|
B|-------------|
G|-------------|  1x
D|11----9----6-| 
A|-------------|
D|12----11---7-|

e|-------------|
B|-------------|
G|-------------|  4x
D|11----9----4-| 
A|-------------|
D|12----11---5-|


REPEAT


http://www.doghouserecords.com/v11/link_front.php
Tap to rate this tab
 
# A B C D E F G H I J K L M N O P Q R S T U V W X Y Z