Song name
# A B C D E F G H I J K L M N O P Q R S T U V W X Y Z

Weaving The Fate - Memory tab

-------------------------------------------------------------------------------
			     MEMORY - Weaving The Fate
-------------------------------------------------------------------------------
Tabbed by: RageAgainst23
Email: bluestrat@sc.rr.com

Band Website: http://www.facebook.com/WeavingTheFate

Tuning: EADGBe

Intro 

  C              Am
e|------------------------------------------------|
B|1-----0--------1-3-1-0--------------------------|
G|--0-----0--------------2------------------------|
D|----2-----2--------------2----------------------|
A|------------3--------------0--------------------| 
E|------------------------------------------------|  

Verse
  C       Am
e|0-0-0-0-0-0-0-0-0-0-----------------------------|
B|1-1-0-0-1-3-1-0-0-0-----------------------------|
G|0-0-0-0-2-2-2-2-2-2-----------------------------|
D|2-2-2-2-2-2-2-2-2-2-----------------------------|
A|3-3-3-3-0-0-0-0-0-0-----------------------------|
E|------------------------------------------------| 

Note: During the 2nd verse there's a bridge; it's just "C Major" to "A minor"  several times. 

Chorus
  F             G               C     G/B   Am               F      Fm
e|-----------------------------------------------------------1-----1-|
B|------------------------------------------------1----------1-----1-|
G|----2-----2-------4-----4---------0-----0-----2---2---0----2-----1-|
D|------3-------------5-----------2-----0-----2-------2------3-----3-|
A|--3-----3-------5-----5-------3-----2-----0----------------3-----3-|
E|1-----------1/3--------------------------------------------1-----1-|


Intro x4
Verse x12
Chorus x2
Verse x4
Intro x4
Bridge
Intro x4
Verse x4
Chorus x2
Verse x4
Chorus x3



************************************

| /   slide up
| \   slide down
| h   hammer-on
| p   pull-off
| ~   vibrato
| +   harmonic
| x   Mute note
| b   Bend
| pb  Pre-bend
| br  Bend release
| pbr Pre-bend release
| brb Bend release bend

************************************
Tap to rate this tab
# A B C D E F G H I J K L M N O P Q R S T U V W X Y Z