Song name
# A B C D E F G H I J K L M N O P Q R S T U V W X Y Z

Wednesday 13 - My Demise tab

Wednesday 13 - My demise.
Cd - Skeletons 2008.
Tabt by - Sven Jakobsen Denmark.
Tuning - C drop.
(numberx)- How many times the note/tabs should be played.

Intro:
D|-------------------------------| 
A|-------------------------------| 
F|-------------------------------|   (1x)
C|-7(8x)-5(8x)-3(8x)-2(8x)-------| 
G|-7(8x)-3(8x)-3(8x)-2(8x)-------| 
C|-7(8x)-------3(8x)-2(8x)-------|

Verse:
D|-------------------------------| 
A|-------------------------------| 
F|-------------------------------|   (3x)
C|-7(8x)-5(8x)-3(8x)-2(8x)-------| 
G|-7(8x)-3(8x)-3(8x)-2(8x)-------| 
C|-7(8x)-------3(8x)-2(8x)-------|

Chorus:
D|-------------------------------| 
A|--13------------------6--------| 
F|-------------------------------|   (5x)
C|-------------------------------|
G|-------------------------------| 
C|-------------------------------|

Solo:
D|-------------------------------| 
A|--13-13b(15)--6----------------| 
F|-------------------------------| 
C|-------------------------------|
G|-------------------------------| 
C|-------------------------------| 

I chould only figure out the beginning solo. But this is the main parts of the song.


Tap to rate this tab
# A B C D E F G H I J K L M N O P Q R S T U V W X Y Z