Song name
# A B C D E F G H I J K L M N O P Q R S T U V W X Y Z

Wednesday 13 - My Demise Acoustic tab

----------------------------------------------------------------------------
			     My Demise (Acoustic) - Wednesday 13
----------------------------------------------------------------------------
Tabbed by:  mgs_280 (Chris Childs)
Email:      mgs_280@yahoo.com

This is basically the acoustic part of the song and its 
pretty simple. I provided the chords to strum by so just 
listen to the song for the rhythm.

Tuning: Tune down one step (DGCFAd)

(0:00 - 0:35)
d|--------------------------------------------------|
A|---1-------1--------------------------------------|
F|---2-------0--------------------------------------|3x
C|---2-------2--------3-------3//////5-------2------|
G|---0-------3--------3-------3//////5-------2------|
D|--------------------1-------1//////3-------0------|
*Note(When slideing Csus4 to Dsus4. Dont strum Dsus4 but 
      immediately go to Em.... yes I know these chords are 
      for standard tuning, but pretend its standarded tuning)

(0:35 - 0:45)
d|--------------------------------------------------|
A|--------------------------------------------------|
F|--------------------------------------------------|2x
C|---3-------3//////5-------2-----------------------|
G|---3-------3//////5-------2-----------------------|
D|---1-------1//////3-------0-----------------------|

In the chorus and towards the end of the song, 
just strum the Am & C chords
d|--------------------|
A|---1-------1--------|
F|---2-------0--------|
C|---2-------2--------|
G|---0-------3--------|
D|--------------------|

You can use these chords through out the song when it
comes to the acoustic part.

Just remember.... its all in the rhythm!

| /  slide up
| \  slide down
| h  hammer-on
| p  pull-off
| ~  vibrato
| +  harmonic
| x  Mute note
===============================================================================
Tap to rate this tab
 
# A B C D E F G H I J K L M N O P Q R S T U V W X Y Z