Song name
# A B C D E F G H I J K L M N O P Q R S T U V W X Y Z

Wednesday 13 - My Home Sweethomicide tab

My Home Sweet Homicide
By
Wednesday 13

INTRO 
     B B F#  F#F#F#E  F#B B F# F#F#F#E F#F#
eb|----------------------------------------|
Bb|--4-4-2---2-2-2-0--2-4-4-2--2-2-2-0-2-2-|
Gb|--4-4-3---3-3-3-1--3-4-4-3--3-3-3-1-3-3-|
Db|--4-4-4---4-4-4-2--4-4-4-4--4-4-4-2-4-4-|
Ab|--2-2-4---4-4-4-2--4-2-2-4--4-4-4-2-4-4-|
Eb|--2-2-2---2-2-2-0--2-2-2-2--2-2-2-0-2-2-|

VERSE
     B B F#  F#F#F#E  F#B B F# F#F#F#E F#F#
eb|----------------------------------------|
Bb|--4-4-2---2-2-2-0--2-4-4-2--2-2-2-0-2-2-|
Gb|--4-4-3---3-3-3-1--3-4-4-3--3-3-3-1-3-3-|
Db|--4-4-4---4-4-4-2--4-4-4-4--4-4-4-2-4-4-|
Ab|--2-2-4---4-4-4-2--4-2-2-4--4-4-4-2-4-4-|
Eb|--2-2-2---2-2-2-0--2-2-2-2--2-2-2-0-2-2-|

PRE-CHORUS
     Ab            Db            F#
eb|--------------------------------------------------|
Bb|--4-4-4-4-4-4-4-6-6-6-6-6-6-6-2-2-2-2-2-2-2-2-2-2-|
Gb|--5-5-5-5-5-5-5-6-6-6-6-6-6-6-3-3-3-3-3-3-3-3-3-3-|
Db|--6-6-6-6-6-6-6-6-6-6-6-6-6-6-4-4-4-4-4-4-4-4-4-4-|
Ab|--6-6-6-6-6-6-6-4-4-4-4-4-4-4-4-4-4-4-4-4-4-4-4-4-|
Eb|--4-4-4-4-4-4-4-4-4-4-4-4-4-4-2-2-2-2-2-2-2-2-2-2-|

     Ab            Db            B
eb|--------------------------------------------------|
Bb|--4-4-4-4-4-4-4-6-6-6-6-6-6-6-3-3-3-3-3-3-3-3-3-3-|
Gb|--5-5-5-5-5-5-5-6-6-6-6-6-6-6-3-3-3-3-3-3-3-3-3-3-|
Db|--6-6-6-6-6-6-6-6-6-6-6-6-6-6-3-3-3-3-3-3-3-3-3-3-|
Ab|--6-6-6-6-6-6-6-4-4-4-4-4-4-4-2-2-2-2-2-2-2-2-2-2-|
Eb|--4-4-4-4-4-4-4-4-4-4-4-4-4-4-2-2-2-2-2-2-2-2-2-2-|

CHORUS 
     B B F#  F#F#F#E  F#B B F# F#F#F#E F#F#
eb|----------------------------------------|
Bb|--4-4-2---2-2-2-0--2-4-4-2--2-2-2-0-2-2-|
Gb|--4-4-3---3-3-3-1--3-4-4-3--3-3-3-1-3-3-|
Db|--4-4-4---4-4-4-2--4-4-4-4--4-4-4-2-4-4-|
Ab|--2-2-4---4-4-4-2--4-2-2-4--4-4-4-2-4-4-|
Eb|--2-2-2---2-2-2-0--2-2-2-2--2-2-2-0-2-2-|

VERSE 2
     B B F#  F#F#F#E  F#B B F# F#F#F#E F#F#
eb|----------------------------------------|
Bb|--4-4-2---2-2-2-0--2-4-4-2--2-2-2-0-2-2-|
Gb|--4-4-3---3-3-3-1--3-4-4-3--3-3-3-1-3-3-|
Db|--4-4-4---4-4-4-2--4-4-4-4--4-4-4-2-4-4-|
Ab|--2-2-4---4-4-4-2--4-2-2-4--4-4-4-2-4-4-|
Eb|--2-2-2---2-2-2-0--2-2-2-2--2-2-2-0-2-2-|

PRE-CHORUS
     Ab            Db            F#
eb|--------------------------------------------------|
Bb|--4-4-4-4-4-4-4-6-6-6-6-6-6-6-2-2-2-2-2-2-2-2-2-2-|
Gb|--5-5-5-5-5-5-5-6-6-6-6-6-6-6-3-3-3-3-3-3-3-3-3-3-|
Db|--6-6-6-6-6-6-6-6-6-6-6-6-6-6-4-4-4-4-4-4-4-4-4-4-|
Ab|--6-6-6-6-6-6-6-4-4-4-4-4-4-4-4-4-4-4-4-4-4-4-4-4-|
Eb|--4-4-4-4-4-4-4-4-4-4-4-4-4-4-2-2-2-2-2-2-2-2-2-2-|

     Ab            Db            B
eb|--------------------------------------------------|
Bb|--4-4-4-4-4-4-4-6-6-6-6-6-6-6-3-3-3-3-3-3-3-3-3-3-|
Gb|--5-5-5-5-5-5-5-6-6-6-6-6-6-6-3-3-3-3-3-3-3-3-3-3-|
Db|--6-6-6-6-6-6-6-6-6-6-6-6-6-6-3-3-3-3-3-3-3-3-3-3-|
Ab|--6-6-6-6-6-6-6-4-4-4-4-4-4-4-2-2-2-2-2-2-2-2-2-2-|
Eb|--4-4-4-4-4-4-4-4-4-4-4-4-4-4-2-2-2-2-2-2-2-2-2-2-|

CHORUS 
     B B F#  F#F#F#E  F#B B F# F#F#F#E F#F#
eb|----------------------------------------|
Bb|--4-4-2---2-2-2-0--2-4-4-2--2-2-2-0-2-2-|
Gb|--4-4-3---3-3-3-1--3-4-4-3--3-3-3-1-3-3-|
Db|--4-4-4---4-4-4-2--4-4-4-4--4-4-4-2-4-4-|
Ab|--2-2-4---4-4-4-2--4-2-2-4--4-4-4-2-4-4-|
Eb|--2-2-2---2-2-2-0--2-2-2-2--2-2-2-0-2-2-|

SOLO
|-17b18-15~~--17-17-17b18-15~~-17b18-15-17b18-15-17b18-15-|
|---------------------------------------------------------|
|---------------------------------------------------------|
|---------------------------------------------------------|
|---------------------------------------------------------|
|---------------------------------------------------------|

|--15h17p15h17p15h17p15h17p15~--|
|-------------------------------|
|-------------------------------|
|-------------------------------|
|-------------------------------|
|-------------------------------|

PRE-CHORUS
     Ab            Db            F#
eb|--------------------------------------------------|
Bb|--4-4-4-4-4-4-4-6-6-6-6-6-6-6-2-2-2-2-2-2-2-2-2-2-|
Gb|--5-5-5-5-5-5-5-6-6-6-6-6-6-6-3-3-3-3-3-3-3-3-3-3-|
Db|--6-6-6-6-6-6-6-6-6-6-6-6-6-6-4-4-4-4-4-4-4-4-4-4-|
Ab|--6-6-6-6-6-6-6-4-4-4-4-4-4-4-4-4-4-4-4-4-4-4-4-4-|
Eb|--4-4-4-4-4-4-4-4-4-4-4-4-4-4-2-2-2-2-2-2-2-2-2-2-|

     Ab            Db            B
eb|--------------------------------------------------|
Bb|--4-4-4-4-4-4-4-6-6-6-6-6-6-6-3-3-3-3-3-3-3-3-3-3-|
Gb|--5-5-5-5-5-5-5-6-6-6-6-6-6-6-3-3-3-3-3-3-3-3-3-3-|
Db|--6-6-6-6-6-6-6-6-6-6-6-6-6-6-3-3-3-3-3-3-3-3-3-3-|
Ab|--6-6-6-6-6-6-6-4-4-4-4-4-4-4-2-2-2-2-2-2-2-2-2-2-|
Eb|--4-4-4-4-4-4-4-4-4-4-4-4-4-4-2-2-2-2-2-2-2-2-2-2-|

CHORUS 
     B B F#  F#F#F#E  F#B B F# F#F#F#E F#F#
eb|----------------------------------------|
Bb|--4-4-2---2-2-2-0--2-4-4-2--2-2-2-0-2-2-|
Gb|--4-4-3---3-3-3-1--3-4-4-3--3-3-3-1-3-3-|
Db|--4-4-4---4-4-4-2--4-4-4-4--4-4-4-2-4-4-|
Ab|--2-2-4---4-4-4-2--4-2-2-4--4-4-4-2-4-4-|
Eb|--2-2-2---2-2-2-0--2-2-2-2--2-2-2-0-2-2-|

OUTRO 
     B B F#  F#F#F#E  F#B B F# F#F#F#E F#F#
eb|----------------------------------------|
Bb|--4-4-2---2-2-2-0--2-4-4-2--2-2-2-0-2-2-|
Gb|--4-4-3---3-3-3-1--3-4-4-3--3-3-3-1-3-3-|
Db|--4-4-4---4-4-4-2--4-4-4-4--4-4-4-2-4-4-|
Ab|--2-2-4---4-4-4-2--4-2-2-4--4-4-4-2-4-4-|
Eb|--2-2-2---2-2-2-0--2-2-2-2--2-2-2-0-2-2-|
Tap to rate this tab
# A B C D E F G H I J K L M N O P Q R S T U V W X Y Z