Song name
# A B C D E F G H I J K L M N O P Q R S T U V W X Y Z

Wednesday 13 - God Is A Lie tab

~ let it ring
b Bend

intro
e]--------------------------------------------------
B]--14b~~~~~~~~~~~~~~~~~~~~~~~~~~~~~~~~~~~~~~~~~~~~~
G]--------------------------------------------------|
D]--------------------------------------------------|
A]--------------------------------------------------|
E]--------------------------------------------------|

e]--------------------------------------------------|
B]--8-8-6-8-11-10-----------------------------------|
G]--------------------------------------------------|  x4
D]--------------------------------------------------|
A]--------------------------------------------------|
E]--------------------------------------------------|

verse

e]--44444444-00000000-77777777-22222222-------------|
B]--44444444-00000000-77777777-22222222-------------|
G]--44444444-00000000-77777777-22222222-------------| x2
D]--------------------------------------------------|
A]--------------------------------------------------|
E]--------------------------------------------------|

e]--------------------------------------------------|
B]--------------------------------------------------|
G]--------------------------------------------------|
D]--16~~~~~~~12~~~~~~~~19~~~~~~~~14~~~~~~~~---------| x2
A]--------------------------------------------------|
E]--------------------------------------------------|

e]--------------------------------------------------|
B]--------------------------------------------------|
G]--------------------------------------------------| x2
D]--16-16-16-14-12--19-14---------------------------|
A]--------------------------------------------------|
E]--------------------------------------------------|

e]----------------------------12~14~11~-------------|
B]----------------------------12~14~11~-------------|
G]----------------------------12~14~11~-------------|
D]--------------------------------------------------|
A]--------------------------------------------------|
E]--------------------------------------------------|

Course
e]--------------------------------------------------|
B]--8-8-6-8-11-10-----------------------------------|
G]--------------------------------------------------| x8
D]--------------------------------------------------|
A]--------------------------------------------------|
E]--------------------------------------------------|

e]--------------------------------------------------|
B]--------------------------------------------------|
G]--------------------------------------------------|
D]--16-16-12-16-16-12-16----------------------------| x3
A]--------------------------------------------------|
E]--------------------------------------------------|

Verse
e]--44444444-00000000-77777777-22222222-------------|
B]--44444444-00000000-77777777-22222222-------------|
G]--44444444-00000000-77777777-22222222-------------| x2
D]--------------------------------------------------|
A]--------------------------------------------------|
E]--------------------------------------------------|

e]--------------------------------------------------|
B]--------------------------------------------------|
G]--------------------------------------------------|
D]--16~~~~~~~12~~~~~~~~19~~~~~~~~14~~~~~~~~---------| x2
A]--------------------------------------------------|
E]--------------------------------------------------|

e]--------------------------------------------------|
B]--------------------------------------------------|
G]--------------------------------------------------| x2
D]--16-16-16-14-12--19-14---------------------------|
A]--------------------------------------------------|
E]--------------------------------------------------|

e]----------------------------12~14~11~-------------|
B]----------------------------12~14~11~-------------|
G]----------------------------12~14~11~-------------|
D]--------------------------------------------------|
A]--------------------------------------------------|
E]--------------------------------------------------|

Course
e]--------------------------------------------------|
B]--8-8-6-8-11-10-----------------------------------|
G]--------------------------------------------------| x8
D]--------------------------------------------------|
A]--------------------------------------------------|
E]--------------------------------------------------|


e]--------------------------------------------------|
B]--------------------------------------------------|
G]--------------------------------------------------|
D]--16-16-12-16-16-12-16----------------------------| x3
A]--------------------------------------------------|
E]--------------------------------------------------|


solo
e]------------------------------------13-------------------------|
B]--13b-13b-13b-13b-13b-13b----13-11-10-8-8h11-11h13-13h15-15----|
G]---------------------------------------------------------------|
D]---------------------------------------------------------------|
A]---------------------------------------------------------------|
E]---------------------------------------------------------------|

E]--15-15-15-15-15-15-15-15-15-15-15-15-15-18-20-----|
B]---------------------------------------------------|
G]---------------------------------------------------|
D]---------------------------------------------------|
A]---------------------------------------------------|
E]---------------------------------------------------|

e]--20b-20-20-18-17-15-15h13-13h10-10-15-17-18-17-15----|
B]------------------------------------------------------|
G]------------------------------------------------------|
D]------------------------------------------------------|
A]------------------------------------------------------|
E]------------------------------------------------------|

e]--------------------------------------------------|
B]--------------------------------------------------|
G]--------------------------------------------------| x2
D]--16-16-16-14-12--19-14---------------------------|
A]--------------------------------------------------|
E]--------------------------------------------------|

e]----------------------------12~14~11~-------------|
B]----------------------------12~14~11~-------------|
G]----------------------------12~14~11~-------------|
D]--------------------------------------------------|
A]--------------------------------------------------|
E]--------------------------------------------------|

Course
e]--------------------------------------------------|
B]--8-8-6-8-11-10-----------------------------------|
G]--------------------------------------------------| x8
D]--------------------------------------------------|
A]--------------------------------------------------|
E]--------------------------------------------------|


e]-------------------------------------------------------------|
B]-------------------------------------------------------------|
G]-------------------------------------------------------------|
D]--16-16-12-16-16-12-16-16-12-16------------------------------| x3
A]-------------------------------------------------------------|
E]-------------------------------------------------------------|

outtro
e]---------------------------------------------------|
B]---------------------------------------------------|
G]---------------------------------------------------|
D]--16-16-12-16-16-12-16-16-12-16--------------------|
A]---------------------------------------------------|
E]---------------------------------------------------|
Tap to rate this tab
# A B C D E F G H I J K L M N O P Q R S T U V W X Y Z