Song name
# A B C D E F G H I J K L M N O P Q R S T U V W X Y Z

Wednesday 13 - 197666 tab

/ =  slide up
!!=  string bend (they'll be over the number string bending is when you push the
string up towards you so it'll make a higher sound. anyways...


1| -----10-10-10-8-8-8-----10-10-10-8-8-8-----------|
2| -10------------------8------------------6-8-8-8--|
3| -------------------------------------------------|
4| -------------------------------------------------|
5| -------------------------------------------------|
6| -------------------------------------------------|

1| -10-10-10-10-8-8-8-8-----------------------------|
2| ----------------------10-10-8-10-8-10------------|
3| -------------------------------------------------|
4| -------------------------------------------------|
5| -------------------------------------------------|
6| -------------------------------------------------|

here's the fast part:

1| --------------20-19-17----20-19-17-----20-19-17-|
2| -10/15-17-17-----------17----------17-----------|
3| ------------------------------------------------|
4| ------------------------------------------------|
5| ------------------------------------------------|
6| ------------------------------------------------|

1| --------------20-19-17----20-19-17----20-19-17--|
2| -17-17-17-17-----------17----------17-----------|
3| ------------------------------------------------|
4| ------------------------------------------------|
5| ------------------------------------------------|
6| ------------------------------------------------|
              !! !!
1| -----19-20-21-21-20-17-17-----------------------|
2| -17---------------------------------------------|
3| ------------------------------------------------|
4| ------------------------------------------------|
5| ------------------------------------------------|
6| ------------------------------------------------|
Tap to rate this tab
 
# A B C D E F G H I J K L M N O P Q R S T U V W X Y Z