Song name
# A B C D E F G H I J K L M N O P Q R S T U V W X Y Z

Wednesday 13 - Skeletons tab

Tuning from low to high:Eb Ab Db Gb Bb Eb

Intro(Piano tabbed to acoustic guitar) Play 2 times

e--------3--3----3--3--0--0--------|
b--------3--3----2--2--2--2--------|
g--------0--0----3--3--2--2--------|
D--2--2--0--0----0--0--2--2--5-4-2-|
A--2--2--2--2--2-------0--0--------|
E--0--0--3--3--3-------------------|

Pre Verse(Guitar with distortion)Play 2 times and end with some feedback followed by a rake

e----------------------------------------------|
b----------------------------------------------|
g----------------------------------------------|
d-----2/4--2-----2/4--2-------2/4--2--7--5-4-2-|
A--2----------2------------2-------------------|
E--0----------0------------0-------------------|


Verse is just bass below Played 2 times

g--------------|
D--------------|
A--------5-----|
E--0--3-----5--|

Chorus

e----------------------------------------------|
b----------------------------------------------|
g----------------------------------------------|
d-----2/4--2-----2/4--2-------2/4--2--7--5-4-2-|
A--2----------2------------2-------------------|
E--0----------0------------0-------------------|

e----------------------------------------------|
b----------------------------------------------|
g----------------------------------------------|
d-----2/4--2-----2/4--2-------2/4--2--7--5-4-2-|
A--2----------2------------2-------------------|
E--0----------0------------0-------------------|


e----------------|
b----------------|
g----------------|
D--5r--2r--------|
A-------------2--|
E-------------0--|

e--------------------------|
b--------------------------|
g--------------------------|
d-----2/4--2-----2/4--2----|
A--2----------2------------|
E--0----------0------------|

e-----------------|
b-----------------|
g----------5b--4v-|
D--5r--2r---------|
A-----------------|
E-----------------|

(Play this Part two times)
e----------------------------------------------|
b----------------------------------------------|
g----------------------------------------------|
d-----2/4--2-----2/4--2-------2/4--2--7--5-4-2-|
A--2----------2------------2-------------------|
E--0----------0------------0-------------------|

(Repeat Verse and Chorus again)

Then here comes the guitar solo which is played in G E D and A
But I havent quite figured out the exact notes yet, but it's played different live 
anyway so do what sounds good in the notes

Repeat chorus

Break is just hitting the E5 chord.


Ending solo (under the Whoa part)

e-------------|
b-------------|
g-------------|
d--17--15--14-|
A-------------|
E-------------|


Well that is it! I asure you that it is about 95% correct! Just listen to the song.
Tap to rate this tab
# A B C D E F G H I J K L M N O P Q R S T U V W X Y Z