Song name
# A B C D E F G H I J K L M N O P Q R S T U V W X Y Z

Wednesday 13 - Bad Things tab

this is my first tab but im 90% sure its right just missing the solo

Tuning:DADGBe

INTRO
e|---------------------------------------------------------------------------|
B|---------------------------------------------------------------------------|
G|---------------------------------------------------------------------------|
D|---333----366-----1---33---1----3----333-----------------------------------| X2
A|---333----366-----1---33---1----3----333-----------------------------------| 
D|---333----366-----1---33---1----3----333-----------------------------------| 

INTRO (CONTINUED)
e|---------------------------------------------------------------------------|
B|---------------------------------------------------------------------------|
G|---------------------------------------------------------------------------|
D|---12\\\\---333---366---1---33---1----3---333------------------------------|X2
A|---12\\\\---333---366---1---33---1----3---333------------------------------| 
D|---12\\\\---333---366---1---33---1----3---333------------------------------|

VERSE
e|---------------------------------------------------------------------------|
B|---------------------------------------------------------------------------|
G|---------------------------------------------------------------------------|
D|---333----366-----1---33---1----3----333-----------------------------------| X8
A|---333----366-----1---33---1----3----333-----------------------------------| 
D|---333----366-----1---33---1----3----333-----------------------------------| 

PRE-CHORUS
e|---------------------------------------------------------------------------|
B|---------------------------------------------------------------------------|
G|---------------------------------------------------------------------------|
D|-----6~~~~~--5~~~~~--4~~~~~--4---------------------------------------------| X1
A|-----6~~~~~--5~~~~~--4~~~~~--4---------------------------------------------| 
D|-----6~~~~~--5~~~~~--4~~~~~--4---------------------------------------------|

CHORUS
e|---------------------------------------------------------------------------|
B|---------------------------------------------------------------------------|
G|---------------------------------------------------------------------------|
D|---333----366-----1---33---1----3----333-----------------------------------| X4
A|---333----366-----1---33---1----3----333-----------------------------------| 
D|---333----366-----1---33---1----3----333-----------------------------------| 

UNDER THE SOLO
e|---------------------------------------------------------------------------|
B|---------------------------------------------------------------------------|
G|---------------------------------------------------------------------------|
D|---333----366-----1---33---1----3----333-----------------------------------| X4
A|---333----366-----1---33---1----3----333-----------------------------------| 
D|---333----366-----1---33---1----3----333-----------------------------------| 


INTRO X2
INTRO (CONTINUED)X2 
VERSE X8
PRE-CHORUS X1
CHORUS X4
UNDER THE SOLO X4
VERSE X8
PRE-CHORUS X1
CHORUS X4
UNDER THE SOLO X4
PRE-CHORUS X1
INTRO X2
INTRO (CONTINUED)X2
CHORUS X4
UNDER THE SOLO X4

yah thats how i hear it as. i cant figure out the solo but if you follow that you 
should get it ^_^ 
Tap to rate this tab
# A B C D E F G H I J K L M N O P Q R S T U V W X Y Z