Song name
# A B C D E F G H I J K L M N O P Q R S T U V W X Y Z

Wednesday 13 - Haddonfield tab

Here Is The Great Tab Haddonfield  From Wednesday 13.
This Song Is Very Easy To Play.




Intro   :
Verse 1 :
Verse 2 :

E-------------------------------------------------------------------------|
B-------------------------------------------------------------------------|
G-------------------------------------------------------------------------|
D--33-333-333-333-333-----------------------------------------------------|
A--11-111-111-111-111--44-444-444-444--33-333-333-333-333-----------------|
E----------------------22-222-222-222--11-111-111-111-111-----------------|



Chourus :


E-------------------------------------------------------------------------|
B-------------------------------------------------------------------------|
G-------------------------------------------------------------------------|
D-66-666-666-666-666----------------44-444-444-444-444--------------------|
A-44-444-444-444-444-66-666-666-666-22-222-222-222-222--44-444-444-444-444|
E--------------------44-444-444-444---------------------22-222-222 222-222|



Interlude : 


E-------------------------------------------------------------------------|
B-------------------------------------------------------------------------|
G-------------------------------------------------------------------------|
D-------------------------------------------------------------------------|
A-33-333-333-333-333------------------------------------------------------|
E-11-111-111-111-111------------------------------------------------------|



Solo : 


E-------------6-----------------------------------------------------------|
B----6666-868--------7777-6666------6666----------------------------------|
G-6~---------------6~----------8888------6-Slide-to-14--------------------|
D-------------------------------------------------------------------------|
A-------------------------------------------------------------------------|
E-------------------------------------------------------------------------|




E-161413-161413-161413 161413-14141414-13131315-16161616 13131315---------|
B-------------------------------------------------------------------------|
G-------------------------------------------------------------------------|
D-------------------------------------------------------------------------|
A-------------------------------------------------------------------------|
E-------------------------------------------------------------------------|
Tap to rate this tab
 
# A B C D E F G H I J K L M N O P Q R S T U V W X Y Z